  0
SECTION
  2
HEADER
  9
$ACADVER
  1
AC1015
  9
$ACADMAINTVER
 70
     6
  9
$DWGCODEPAGE
  3
DOS932
  9
$INSBASE
 10
0.0
 20
0.0
 30
0.0
  9
$EXTMIN
 10
0.0
 20
0.0
 30
0.0
  9
$EXTMAX
 10
840.0
 20
594.0
 30
0.0
  9
$LIMMIN
 10
0.0
 20
0.0
  9
$LIMMAX
 10
840.0
 20
594.0
  9
$ORTHOMODE
 70
     0
  9
$REGENMODE
 70
     1
  9
$FILLMODE
 70
     1
  9
$QTEXTMODE
 70
     0
  9
$MIRRTEXT
 70
     1
  9
$LTSCALE
 40
2.0
  9
$ATTMODE
 70
     1
  9
$TEXTSIZE
 40
7.0
  9
$TRACEWID
 40
1.0
  9
$TEXTSTYLE
  7
Standard
  9
$CLAYER
  8
0
  9
$CELTYPE
  6
ByLayer
  9
$CECOLOR
 62
   256
  9
$CELTSCALE
 40
1.0
  9
$DISPSILH
 70
     0
  9
$DIMSCALE
 40
1.0
  9
$DIMASZ
 40
6.0
  9
$DIMEXO
 40
2.0
  9
$DIMDLI
 40
3.75
  9
$DIMRND
 40
0.0
  9
$DIMDLE
 40
0.0
  9
$DIMEXE
 40
2.0
  9
$DIMTP
 40
0.0
  9
$DIMTM
 40
0.0
  9
$DIMTXT
 40
7.0
  9
$DIMCEN
 40
2.5
  9
$DIMTSZ
 40
0.0
  9
$DIMTOL
 70
     0
  9
$DIMLIM
 70
     0
  9
$DIMTIH
 70
     1
  9
$DIMTOH
 70
     1
  9
$DIMSE1
 70
     0
  9
$DIMSE2
 70
     0
  9
$DIMTAD
 70
     1
  9
$DIMZIN
 70
     0
  9
$DIMBLK
  1

  9
$DIMASO
 70
     1
  9
$DIMSHO
 70
     1
  9
$DIMPOST
  1

  9
$DIMAPOST
  1

  9
$DIMALT
 70
     0
  9
$DIMALTD
 70
     3
  9
$DIMALTF
 40
0.0393700787
  9
$DIMLFAC
 40
1.0
  9
$DIMTOFL
 70
     1
  9
$DIMTVP
 40
0.0
  9
$DIMTIX
 70
     0
  9
$DIMSOXD
 70
     0
  9
$DIMSAH
 70
     0
  9
$DIMBLK1
  1

  9
$DIMBLK2
  1

  9
$DIMSTYLE
  2
ISO-25
  9
$DIMCLRD
 70
     0
  9
$DIMCLRE
 70
     0
  9
$DIMCLRT
 70
     0
  9
$DIMTFAC
 40
1.0
  9
$DIMGAP
 40
3.048
  9
$DIMJUST
 70
     0
  9
$DIMSD1
 70
     0
  9
$DIMSD2
 70
     0
  9
$DIMTOLJ
 70
     0
  9
$DIMTZIN
 70
     0
  9
$DIMALTZ
 70
     0
  9
$DIMALTTZ
 70
     0
  9
$DIMUPT
 70
     0
  9
$DIMDEC
 70
     1
  9
$DIMTDEC
 70
     1
  9
$DIMALTU
 70
     2
  9
$DIMALTTD
 70
     3
  9
$DIMTXSTY
  7
Standard
  9
$DIMAUNIT
 70
     0
  9
$DIMADEC
 70
     2
  9
$DIMALTRND
 40
0.0
  9
$DIMAZIN
 70
     0
  9
$DIMDSEP
 70
    44
  9
$DIMATFIT
 70
     3
  9
$DIMFRAC
 70
     0
  9
$DIMLDRBLK
  1

  9
$DIMLUNIT
 70
     2
  9
$DIMLWD
 70
    -2
  9
$DIMLWE
 70
    -2
  9
$DIMTMOVE
 70
     0
  9
$LUNITS
 70
     2
  9
$LUPREC
 70
     1
  9
$SKETCHINC
 40
1.0
  9
$FILLETRAD
 40
10.0
  9
$AUNITS
 70
     0
  9
$AUPREC
 70
     2
  9
$MENU
  1
.
  9
$ELEVATION
 40
0.0
  9
$PELEVATION
 40
0.0
  9
$THICKNESS
 40
0.0
  9
$LIMCHECK
 70
     0
  9
$CHAMFERA
 40
10.0
  9
$CHAMFERB
 40
10.0
  9
$CHAMFERC
 40
20.0
  9
$CHAMFERD
 40
0.0
  9
$SKPOLY
 70
     0
  9
$TDCREATE
 40
2460440.648656065
  9
$TDUCREATE
 40
2460440.273656065
  9
$TDUPDATE
 40
2460440.648656076
  9
$TDUUPDATE
 40
2460440.273656076
  9
$TDINDWG
 40
0.0000000116
  9
$TDUSRTIMER
 40
0.0000000116
  9
$USRTIMER
 70
     1
  9
$ANGBASE
 50
0.0
  9
$ANGDIR
 70
     0
  9
$PDMODE
 70
     0
  9
$PDSIZE
 40
-1.0
  9
$PLINEWID
 40
0.0
  9
$SPLFRAME
 70
     0
  9
$SPLINETYPE
 70
     6
  9
$SPLINESEGS
 70
     8
  9
$HANDSEED
  5
252
  9
$SURFTAB1
 70
     6
  9
$SURFTAB2
 70
     6
  9
$SURFTYPE
 70
     6
  9
$SURFU
 70
     6
  9
$SURFV
 70
     6
  9
$UCSBASE
  2

  9
$UCSNAME
  2

  9
$UCSORG
 10
0.0
 20
0.0
 30
0.0
  9
$UCSXDIR
 10
1.0
 20
0.0
 30
0.0
  9
$UCSYDIR
 10
0.0
 20
1.0
 30
0.0
  9
$UCSORTHOREF
  2

  9
$UCSORTHOVIEW
 70
     0
  9
$UCSORGTOP
 10
0.0
 20
0.0
 30
0.0
  9
$UCSORGBOTTOM
 10
0.0
 20
0.0
 30
0.0
  9
$UCSORGLEFT
 10
0.0
 20
0.0
 30
0.0
  9
$UCSORGRIGHT
 10
0.0
 20
0.0
 30
0.0
  9
$UCSORGFRONT
 10
0.0
 20
0.0
 30
0.0
  9
$UCSORGBACK
 10
0.0
 20
0.0
 30
0.0
  9
$PUCSBASE
  2

  9
$PUCSNAME
  2

  9
$PUCSORG
 10
0.0
 20
0.0
 30
0.0
  9
$PUCSXDIR
 10
1.0
 20
0.0
 30
0.0
  9
$PUCSYDIR
 10
0.0
 20
1.0
 30
0.0
  9
$PUCSORTHOREF
  2

  9
$PUCSORTHOVIEW
 70
     0
  9
$PUCSORGTOP
 10
0.0
 20
0.0
 30
0.0
  9
$PUCSORGBOTTOM
 10
0.0
 20
0.0
 30
0.0
  9
$PUCSORGLEFT
 10
0.0
 20
0.0
 30
0.0
  9
$PUCSORGRIGHT
 10
0.0
 20
0.0
 30
0.0
  9
$PUCSORGFRONT
 10
0.0
 20
0.0
 30
0.0
  9
$PUCSORGBACK
 10
0.0
 20
0.0
 30
0.0
  9
$USERI1
 70
     0
  9
$USERI2
 70
     0
  9
$USERI3
 70
     0
  9
$USERI4
 70
     0
  9
$USERI5
 70
     0
  9
$USERR1
 40
0.0
  9
$USERR2
 40
0.0
  9
$USERR3
 40
0.0
  9
$USERR4
 40
0.0
  9
$USERR5
 40
0.0
  9
$WORLDVIEW
 70
     1
  9
$SHADEDGE
 70
     3
  9
$SHADEDIF
 70
    70
  9
$TILEMODE
 70
     1
  9
$MAXACTVP
 70
    64
  9
$PINSBASE
 10
0.0
 20
0.0
 30
0.0
  9
$PLIMCHECK
 70
     0
  9
$PEXTMIN
 10
1.0000000000E+20
 20
1.0000000000E+20
 30
1.0000000000E+20
  9
$PEXTMAX
 10
-1.0000000000E+20
 20
-1.0000000000E+20
 30
-1.0000000000E+20
  9
$PLIMMIN
 10
0.0
 20
0.0
  9
$PLIMMAX
 10
420.0
 20
297.0
  9
$UNITMODE
 70
     0
  9
$VISRETAIN
 70
     1
  9
$PLINEGEN
 70
     0
  9
$PSLTSCALE
 70
     1
  9
$TREEDEPTH
 70
  3020
  9
$CMLSTYLE
  2
Standard
  9
$CMLJUST
 70
     0
  9
$CMLSCALE
 40
20.0
  9
$PROXYGRAPHICS
 70
     1
  9
$MEASUREMENT
 70
     1
  9
$CELWEIGHT
370
    -1
  9
$ENDCAPS
280
     0
  9
$JOINSTYLE
280
     0
  9
$LWDISPLAY
290
     1
  9
$INSUNITS
 70
     4
  9
$HYPERLINKBASE
  1

  9
$STYLESHEET
  1

  9
$XEDIT
290
     1
  9
$CEPSNTYPE
380
     0
  9
$PSTYLEMODE
290
     1
  9
$FINGERPRINTGUID
  2
{B72DDF28-2269-4A7A-9292-9C15E28D841F}
  9
$VERSIONGUID
  2
{FAEB1C32-E019-11D5-929B-00C0DF256EC4}
  9
$EXTNAMES
290
     1
  9
$PSVPSCALE
 40
0.0
  9
$OLESTARTUP
290
     0
  0
ENDSEC
  0
SECTION
  2
CLASSES
  0
CLASS
  1
ACDBDICTIONARYWDFLT
  2
AcDbDictionaryWithDefault
  3
ObjectDBX Classes
 90
        0
280
     0
281
     0
  0
CLASS
  1
VISUALSTYLE
  2
AcDbVisualStyle
  3
ObjectDBX Classes
 90
     4095
280
     0
281
     0
  0
CLASS
  1
MATERIAL
  2
AcDbMaterial
  3
ObjectDBX Classes
 90
     1153
280
     0
281
     0
  0
CLASS
  1
ACDBPLACEHOLDER
  2
AcDbPlaceHolder
  3
ObjectDBX Classes
 90
        0
280
     0
281
     0
  0
CLASS
  1
LAYOUT
  2
AcDbLayout
  3
ObjectDBX Classes
 90
        0
280
     0
281
     0
  0
ENDSEC
  0
SECTION
  2
TABLES
  0
TABLE
  2
VPORT
  5
8
330
0
100
AcDbSymbolTable
 70
     1
  0
VPORT
  5
29
330
8
100
AcDbSymbolTableRecord
100
AcDbViewportTableRecord
  2
*Active
 70
     0
 10
0.0
 20
0.0
 11
1.0
 21
1.0
 12
420.0
 22
297.0
 13
0.0
 23
0.0
 14
10.0
 24
10.0
 15
10.0
 25
10.0
 16
0.0
 26
0.0
 36
1.0
 17
0.0
 27
0.0
 37
0.0
 40
594.0
 41
1.4141414141
 42
50.0
 43
0.0
 44
0.0
 50
0.0
 51
0.0
 71
     0
 72
  2000
 73
     1
 74
     3
 75
     0
 76
     0
 77
     0
 78
     0
281
     0
 65
     1
110
0.0
120
0.0
130
0.0
111
1.0
121
0.0
131
0.0
112
0.0
122
1.0
132
0.0
 79
     0
146
0.0
  0
ENDTAB
  0
TABLE
  2
LTYPE
  5
5
330
0
100
AcDbSymbolTable
 70
     6
  0
LTYPE
  5
14
330
5
100
AcDbSymbolTableRecord
100
AcDbLinetypeTableRecord
  2
ByBlock
 70
     0
  3

 72
    65
 73
     0
 40
0.0
  0
LTYPE
  5
15
330
5
100
AcDbSymbolTableRecord
100
AcDbLinetypeTableRecord
  2
ByLayer
 70
     0
  3

 72
    65
 73
     0
 40
0.0
  0
LTYPE
  5
16
330
5
100
AcDbSymbolTableRecord
100
AcDbLinetypeTableRecord
  2
Continuous
 70
     0
  3
Solid line
 72
    65
 73
     0
 40
0.0
  0
LTYPE
  5
3F
330
5
100
AcDbSymbolTableRecord
100
AcDbLinetypeTableRecord
  2
HIDDEN
 70
     0
  3
Hidden __ __ __ __ __ __ __ __ __ __ __ __ __ __
 72
    65
 73
     2
 40
1.905
 49
1.27
 74
     0
 49
-0.635
 74
     0
  0
LTYPE
  5
40
330
5
100
AcDbSymbolTableRecord
100
AcDbLinetypeTableRecord
  2
PHANTOM
 70
     0
  3
Phantom ______  __  __  ______  __  __  ______
 72
    65
 73
     6
 40
12.7
 49
6.35
 74
     0
 49
-1.27
 74
     0
 49
1.27
 74
     0
 49
-1.27
 74
     0
 49
1.27
 74
     0
 49
-1.27
 74
     0
  0
LTYPE
  5
41
330
5
100
AcDbSymbolTableRecord
100
AcDbLinetypeTableRecord
  2
CENTER
 70
     0
  3
Center ____ _ ____ _ ____ _ ____ _ ____ _ ____
 72
    65
 73
     4
 40
10.16
 49
6.35
 74
     0
 49
-1.27
 74
     0
 49
1.27
 74
     0
 49
-1.27
 74
     0
  0
LTYPE
  5
42
330
5
100
AcDbSymbolTableRecord
100
AcDbLinetypeTableRecord
  2
CENTERX2
 70
     0
  3
Center (2x) ________  __  ________  __  _____
 72
    65
 73
     4
 40
20.32
 49
12.7
 74
     0
 49
-2.54
 74
     0
 49
2.54
 74
     0
 49
-2.54
 74
     0
  0
LTYPE
  5
43
330
5
100
AcDbSymbolTableRecord
100
AcDbLinetypeTableRecord
  2
DOT2
 70
     0
  3
Dot (.5x) ........................................
 72
    65
 73
     2
 40
0.635
 49
0.0
 74
     0
 49
-0.635
 74
     0
  0
ENDTAB
  0
TABLE
  2
LAYER
  5
2
330
0
100
AcDbSymbolTable
 70
     1
  0
LAYER
  5
10
330
2
100
AcDbSymbolTableRecord
100
AcDbLayerTableRecord
  2
0
 70
     0
 62
     7
  6
Continuous
370
    -3
390
F
  0
ENDTAB
  0
TABLE
  2
STYLE
  5
3
330
0
100
AcDbSymbolTable
 70
     2
  0
STYLE
  5
11
330
3
100
AcDbSymbolTableRecord
100
AcDbTextStyleTableRecord
  2
Standard
 70
     0
 40
0.0
 41
1.0
 50
0.0
 71
     0
 42
2.5
  3
txt
  4
bigfont
  0
STYLE
  5
44
330
3
100
AcDbSymbolTableRecord
100
AcDbTextStyleTableRecord
  2
SLDTEXTSTYLE0
 70
     0
 40
0.0
 41
0.7
 50
0.0
 71
     0
 42
0.2
  3
TXT
  4
bigfont
  0
ENDTAB
  0
TABLE
  2
VIEW
  5
6
330
0
100
AcDbSymbolTable
 70
     0
  0
ENDTAB
  0
TABLE
  2
UCS
  5
7
330
0
100
AcDbSymbolTable
 70
     0
  0
ENDTAB
  0
TABLE
  2
APPID
  5
9
330
0
100
AcDbSymbolTable
 70
     1
  0
APPID
  5
12
330
9
100
AcDbSymbolTableRecord
100
AcDbRegAppTableRecord
  2
ACAD
 70
     0
  0
ENDTAB
  0
TABLE
  2
DIMSTYLE
  5
A
330
0
100
AcDbSymbolTable
 70
     1
100
AcDbDimStyleTable
  0
DIMSTYLE
105
27
330
A
100
AcDbSymbolTableRecord
100
AcDbDimStyleTableRecord
  2
ISO-25
 70
     0
 41
2.5
 42
0.625
 43
3.75
 44
1.25
 73
     0
 74
     0
 77
     1
 78
     8
140
2.5
141
2.5
143
0.0393700787
147
0.625
171
     3
172
     1
178
     0
271
     2
272
     2
274
     3
278
    44
283
     0
284
     8
340
11
  0
ENDTAB
  0
TABLE
  2
BLOCK_RECORD
  5
1
330
0
100
AcDbSymbolTable
 70
     1
  0
BLOCK_RECORD
  5
1F
330
1
100
AcDbSymbolTableRecord
100
AcDbBlockTableRecord
  2
*Model_Space
340
22
  0
BLOCK_RECORD
  5
1B
330
1
100
AcDbSymbolTableRecord
100
AcDbBlockTableRecord
  2
*Paper_Space
340
1E
  0
BLOCK_RECORD
  5
23
330
1
100
AcDbSymbolTableRecord
100
AcDbBlockTableRecord
  2
*Paper_Space0
340
26
  0
ENDTAB
  0
ENDSEC
  0
SECTION
  2
BLOCKS
  0
BLOCK
  5
20
330
1F
100
AcDbEntity
  8
0
100
AcDbBlockBegin
  2
*Model_Space
 70
     0
 10
0.0
 20
0.0
 30
0.0
  3
*Model_Space
  1

  0
ENDBLK
  5
21
330
1F
100
AcDbEntity
  8
0
100
AcDbBlockEnd
  0
BLOCK
  5
1C
330
1B
100
AcDbEntity
 67
     1
  8
0
100
AcDbBlockBegin
  2
*Paper_Space
 70
     0
 10
0.0
 20
0.0
 30
0.0
  3
*Paper_Space
  1

  0
ENDBLK
  5
1D
330
1B
100
AcDbEntity
 67
     1
  8
0
100
AcDbBlockEnd
  0
BLOCK
  5
24
330
23
100
AcDbEntity
  8
0
100
AcDbBlockBegin
  2
*Paper_Space0
 70
     0
 10
0.0
 20
0.0
 30
0.0
  3
*Paper_Space0
  1

  0
ENDBLK
  5
25
330
23
100
AcDbEntity
  8
0
100
AcDbBlockEnd
  0
ENDSEC
  0
SECTION
  2
ENTITIES
  0
MTEXT
  5
45
330
1F
100
AcDbEntity
  8
0
  6
Continuous
 62
     7
370
     0
100
AcDbMText
 10
184.0559094126
 20
459.7296312127
 30
0.0
 40
7.0
 41
0.0
 71
     1
 72
     1
  1
CHB-504N
  7
SLDTEXTSTYLE0
 73
     1
 44
1.0
  0
LINE
  5
46
330
1F
100
AcDbEntity
  8
0
  6
Continuous
 62
     7
370
    15
100
AcDbLine
 10
394.2068656892
 20
185.386128424
 30
0.0
 11
394.306867382
 21
185.386128424
 31
0.0
  0
LINE
  5
47
330
1F
100
AcDbEntity
  8
0
  6
Continuous
 62
     7
370
    15
100
AcDbLine
 10
394.306867382
 20
191.386128709
 30
0.0
 11
394.2068656892
 21
191.386128709
 31
0.0
  0
LINE
  5
48
330
1F
100
AcDbEntity
  8
0
  6
Continuous
 62
     7
370
    15
100
AcDbLine
 10
394.2068656892
 20
195.386128899
 30
0.0
 11
394.306867382
 21
195.386128899
 31
0.0
  0
LINE
  5
49
330
1F
100
AcDbEntity
  8
0
  6
Continuous
 62
     7
370
    15
100
AcDbLine
 10
394.306867382
 20
201.3861291839
 30
0.0
 11
394.2068656892
 21
201.3861291839
 31
0.0
  0
LINE
  5
4A
330
1F
100
AcDbEntity
  8
0
  6
Continuous
 62
     7
370
    15
100
AcDbLine
 10
395.5068578929
 20
204.8861288263
 30
0.0
 11
394.306867382
 21
204.8861288263
 31
0.0
  0
LINE
  5
4B
330
1F
100
AcDbEntity
  8
0
  6
Continuous
 62
     7
370
    15
100
AcDbLine
 10
394.306867382
 20
181.8861287816
 30
0.0
 11
395.5068578929
 21
181.8861287816
 31
0.0
  0
LINE
  5
4C
330
1F
100
AcDbEntity
  8
0
  6
Continuous
 62
     7
370
    15
100
AcDbLine
 10
707.0068707675
 20
99.3861320226
 30
0.0
 11
707.0068707675
 21
134.3861284463
 31
0.0
  0
LINE
  5
4D
330
1F
100
AcDbEntity
  8
0
  6
Continuous
 62
     7
370
    15
100
AcDbLine
 10
707.0068707675
 20
252.3861291616
 30
0.0
 11
707.0068707675
 21
287.3861255853
 31
0.0
  0
SPLINE
  5
4E
330
1F
100
AcDbEntity
  8
0
  6
Continuous
 62
     7
370
    15
100
AcDbSpline
210
0.0
220
0.0
230
1.0
 70
     8
 71
     3
 72
    11
 73
     7
 74
     0
 42
0.00000001
 43
0.00000001
 40
0.0
 40
0.0
 40
0.0
 40
0.0
 40
0.2262212516214751
 40
0.4679441910674981
 40
0.7254890426979009
 40
1.0
 40
1.0
 40
1.0
 40
1.0
 10
391.8273737639678
 20
201.6165635346121
 30
0.0
 10
391.8302008634804
 20
201.593664592697
 30
0.0
 10
391.8360487879571
 20
201.5462975713674
 30
0.0
 10
391.8528087571065
 20
201.2215070496307
 30
0.0
 10
391.8664099620269
 20
200.7210219940822
 30
0.0
 10
391.8669439573581
 20
200.2971948962013
 30
0.0
 10
391.8672194690001
 20
200.0785238838441
 30
0.0
  0
SPLINE
  5
4F
330
1F
100
AcDbEntity
  8
0
  6
Continuous
 62
     7
370
    15
100
AcDbSpline
210
0.0
220
0.0
230
1.0
 70
     8
 71
     3
 72
    12
 73
     8
 74
     0
 42
0.00000001
 43
0.00000001
 40
0.0
 40
0.0
 40
0.0
 40
0.0
 40
0.2489445739028115
 40
0.4822862098310756
 40
0.6998114639483098
 40
0.9035368778110593
 40
1.0
 40
1.0
 40
1.0
 40
1.0
 10
391.8672194690001
 20
186.5198930523044
 30
0.0
 10
391.8657936224827
 20
186.382559533411
 30
0.0
 10
391.8630312963073
 20
186.1165000597237
 30
0.0
 10
391.8521300724616
 20
185.7806845070768
 30
0.0
 10
391.8496199181016
 20
185.5475184489105
 30
0.0
 10
391.854409060395
 20
185.4274093466497
 30
0.0
 10
391.8808395661291
 20
185.4260630820614
 30
0.0
 10
391.8893327922118
 20
185.4256304709858
 30
0.0
  0
LINE
  5
50
330
1F
100
AcDbEntity
  8
0
  6
Continuous
 62
     7
370
    15
100
AcDbLine
 10
391.8663701028
 20
200.1285237989
 30
0.0
 11
391.8663701028
 21
186.4698931372
 31
0.0
  0
LINE
  5
51
330
1F
100
AcDbEntity
  8
0
  6
Continuous
 62
     7
370
    15
100
AcDbLine
 10
390.3427561731
 20
204.0664122238
 30
0.0
 11
391.8301155776
 21
201.5862648173
 31
0.0
  0
LINE
  5
52
330
1F
100
AcDbEntity
  8
0
  6
Continuous
 62
     7
370
    15
100
AcDbLine
 10
394.306867382
 20
203.2893744095
 30
0.0
 11
392.9155757636
 21
205.6093380584
 31
0.0
  0
LINE
  5
53
330
1F
100
AcDbEntity
  8
0
  6
Continuous
 62
     7
370
    15
100
AcDbLine
 10
391.8946078033
 20
185.2935447155
 30
0.0
 11
390.3255304307
 21
182.6771261899
 31
0.0
  0
LINE
  5
54
330
1F
100
AcDbEntity
  8
0
  6
Continuous
 62
     7
370
    15
100
AcDbLine
 10
392.8983500213
 20
181.1342003553
 30
0.0
 11
394.306867382
 21
183.4828831984
 31
0.0
  0
LINE
  5
55
330
1F
100
AcDbEntity
  8
0
  6
Continuous
 62
     7
370
    15
100
AcDbLine
 10
392.9354688138
 20
205.5738295226
 30
0.0
 11
392.8455105037
 21
205.6876166521
 31
0.0
  0
SPLINE
  5
56
330
1F
100
AcDbEntity
  8
0
  6
Continuous
 62
     7
370
    15
100
AcDbSpline
210
0.0
220
0.0
230
1.0
 70
     8
 71
     3
 72
    20
 73
    16
 74
     0
 42
0.00000001
 43
0.00000001
 40
0.0
 40
0.0
 40
0.0
 40
0.0
 40
0.0337795050543948
 40
0.1101051841529493
 40
0.1739290285231793
 40
0.2252746548070327
 40
0.2665370945345786
 40
0.3037733232441076
 40
0.3388589253082213
 40
0.3726389058879608
 40
0.4139176362643257
 40
0.6259827951436343
 40
0.8390272748670135
 40
0.9659462426554039
 40
0.9999999999999999
 40
0.9999999999999999
 40
0.9999999999999999
 40
0.9999999999999999
 10
392.7332004517806
 20
205.8296861855931
 30
0.0
 10
392.692545298015
 20
205.8858716789961
 30
0.0
 10
392.5600287562563
 20
206.0690097708036
 30
0.0
 10
392.2501527327421
 20
206.2461862016233
 30
0.0
 10
391.8628858800698
 20
206.3691425490593
 30
0.0
 10
391.4930350591006
 20
206.383930593741
 30
0.0
 10
391.1587191238903
 20
206.3333423705883
 30
0.0
 10
390.884242857047
 20
206.2322873240225
 30
0.0
 10
390.6567285693284
 20
206.0975825811971
 30
0.0
 10
390.4507126759484
 20
205.9213929703278
 30
0.0
 10
390.106143452704
 20
205.4789153389878
 30
0.0
 10
389.9250955705079
 20
204.7922315184967
 30
0.0
 10
389.7752809323122
 20
203.611400178605
 30
0.0
 10
389.7201632029158
 20
202.7067567180146
 30
0.0
 10
389.7136016357552
 20
202.2921687902481
 30
0.0
 10
389.7122135371459
 20
202.2044627724833
 30
0.0
  0
SPLINE
  5
57
330
1F
100
AcDbEntity
  8
0
  6
Continuous
 62
     7
370
    15
100
AcDbSpline
210
0.0
220
0.0
230
1.0
 70
     8
 71
     3
 72
    19
 73
    15
 74
     0
 42
0.00000001
 43
0.00000001
 40
0.0
 40
0.0
 40
0.0
 40
0.0
 40
0.0102737053477949
 40
0.1295968921188889
 40
0.3268122850643485
 40
0.5525085230171803
 40
0.5858532753149814
 40
0.6186007963878319
 40
0.6529066586472678
 40
0.6960060375611246
 40
0.7523135488775782
 40
0.822314170160229
 40
0.9054608819237085
 40
1.0
 40
1.0
 40
1.0
 40
1.0
 10
389.7093674153579
 20
184.5861288516468
 30
0.0
 10
389.7096905979935
 20
184.5589298816967
 30
0.0
 10
389.713767361318
 20
184.2158304978779
 30
0.0
 10
389.7535548585813
 20
183.3958410056414
 30
0.0
 10
389.8885510417256
 20
182.1734074392311
 30
0.0
 10
389.9789317786143
 20
181.5300526600901
 30
0.0
 10
390.329830994479
 20
180.9899490750726
 30
0.0
 10
390.4990512963826
 20
180.8021025915615
 30
0.0
 10
390.7357697157528
 20
180.6256306319968
 30
0.0
 10
391.0493911812966
 20
180.4721454919852
 30
0.0
 10
391.4528844162712
 20
180.3703661124904
 30
0.0
 10
391.9387376230923
 20
180.3935267545578
 30
0.0
 10
392.4685048850138
 20
180.6038503657541
 30
0.0
 10
392.7337240720921
 20
180.9256697439192
 30
0.0
 10
392.8748359889281
 20
181.0968962295598
 30
0.0
  0
LINE
  5
58
330
1F
100
AcDbEntity
  8
0
  6
Continuous
 62
     7
370
    15
100
AcDbLine
 10
386.4020546884
 20
197.2861286982
 30
0.0
 11
386.4020546884
 21
188.6861288718
 31
0.0
  0
LINE
  5
59
330
1F
100
AcDbEntity
  8
0
  6
Continuous
 62
     7
370
    15
100
AcDbLine
 10
387.0068630189
 20
201.3858749329
 30
0.0
 11
387.0068630189
 21
200.5861286803
 31
0.0
  0
LINE
  5
5A
330
1F
100
AcDbEntity
  8
0
  6
Continuous
 62
     7
370
    15
100
AcDbLine
 10
387.0068630189
 20
186.1861289276
 30
0.0
 11
387.0068630189
 21
185.386382675
 31
0.0
  0
ARC
  5
5B
330
1F
100
AcDbEntity
  8
0
  6
Continuous
 62
     7
370
    15
100
AcDbCircle
 10
390.6068638534
 20
198.5789859469
 30
0.0
 40
3.807142857143191
100
AcDbArc
 50
77.9663271603
 51
90.0
  0
ARC
  5
5C
330
1F
100
AcDbEntity
  8
0
  6
Continuous
 62
     7
370
    15
100
AcDbCircle
 10
390.6068638534
 20
198.5789859469
 30
0.0
 40
3.807142857143191
100
AcDbArc
 50
90.0
 51
125.3002484399
  0
LINE
  5
5D
330
1F
100
AcDbEntity
  8
0
  6
Continuous
 62
     7
370
    15
100
AcDbLine
 10
388.4068569154
 20
201.6861286743
 30
0.0
 11
388.4068569154
 21
201.3861291839
 31
0.0
  0
LINE
  5
5E
330
1F
100
AcDbEntity
  8
0
  6
Continuous
 62
     7
370
    15
100
AcDbLine
 10
388.5068586082
 20
184.9861291035
 30
0.0
 11
388.5068586082
 21
184.5861288516
 31
0.0
  0
ARC
  5
5F
330
1F
100
AcDbEntity
  8
0
  6
Continuous
 62
     7
370
    15
100
AcDbCircle
 10
388.7068638534
 20
185.386128804
 30
0.0
 40
0.4000000000007731
100
AcDbArc
 50
270.0
 51
0.0
  0
LINE
  5
60
330
1F
100
AcDbEntity
  8
0
  6
Continuous
 62
     7
370
    15
100
AcDbLine
 10
389.1068687648
 20
200.5861286803
 30
0.0
 11
389.1068687648
 21
200.1361289791
 31
0.0
  0
LINE
  5
61
330
1F
100
AcDbEntity
  8
0
  6
Continuous
 62
     7
370
    15
100
AcDbLine
 10
389.1068687648
 20
186.6361286289
 30
0.0
 11
389.1068687648
 21
186.1861289276
 31
0.0
  0
LINE
  5
62
330
1F
100
AcDbEntity
  8
0
  6
Continuous
 62
     7
370
    15
100
AcDbLine
 10
707.0068707675
 20
63.3861335723
 30
0.0
 11
707.0068707675
 21
98.3861299961
 31
0.0
  0
LINE
  5
63
330
1F
100
AcDbEntity
  8
0
  6
Continuous
 62
     7
370
    15
100
AcDbLine
 10
707.0068707675
 20
288.3861276119
 30
0.0
 11
707.0068707675
 21
323.3861240356
 31
0.0
  0
LINE
  5
64
330
1F
100
AcDbEntity
  8
0
  6
Continuous
 62
     7
370
    15
100
AcDbLine
 10
704.0068646878
 20
98.3861299961
 30
0.0
 11
704.0068646878
 21
99.3861320226
 31
0.0
  0
LINE
  5
65
330
1F
100
AcDbEntity
  8
0
  6
Continuous
 62
     7
370
    15
100
AcDbLine
 10
704.0068646878
 20
134.3861284463
 30
0.0
 11
704.0068646878
 21
135.3861304729
 31
0.0
  0
LINE
  5
66
330
1F
100
AcDbEntity
  8
0
  6
Continuous
 62
     7
370
    15
100
AcDbLine
 10
699.0068694562
 20
135.3861304729
 30
0.0
 11
699.0068694562
 21
134.3861284463
 31
0.0
  0
LINE
  5
67
330
1F
100
AcDbEntity
  8
0
  6
Continuous
 62
     7
370
    15
100
AcDbLine
 10
699.0068694562
 20
99.3861320226
 30
0.0
 11
699.0068694562
 21
98.3861299961
 31
0.0
  0
LINE
  5
68
330
1F
100
AcDbEntity
  8
0
  6
Continuous
 62
     7
370
    15
100
AcDbLine
 10
699.0068694562
 20
288.3861276119
 30
0.0
 11
699.0068694562
 21
287.3861255853
 31
0.0
  0
LINE
  5
69
330
1F
100
AcDbEntity
  8
0
  6
Continuous
 62
     7
370
    15
100
AcDbLine
 10
699.0068694562
 20
252.3861291616
 30
0.0
 11
699.0068694562
 21
251.386127135
 31
0.0
  0
LINE
  5
6A
330
1F
100
AcDbEntity
  8
0
  6
Continuous
 62
     7
370
    15
100
AcDbLine
 10
704.0068646878
 20
251.386127135
 30
0.0
 11
704.0068646878
 21
252.3861291616
 31
0.0
  0
LINE
  5
6B
330
1F
100
AcDbEntity
  8
0
  6
Continuous
 62
     7
370
    15
100
AcDbLine
 10
704.0068646878
 20
287.3861255853
 30
0.0
 11
704.0068646878
 21
288.3861276119
 31
0.0
  0
LINE
  5
6C
330
1F
100
AcDbEntity
  8
0
  6
Continuous
 62
     7
370
    15
100
AcDbLine
 10
387.2068664045
 20
200.1361289791
 30
0.0
 11
387.2068664045
 21
199.843317902
 31
0.0
  0
LINE
  5
6D
330
1F
100
AcDbEntity
  8
0
  6
Continuous
 62
     7
370
    15
100
AcDbLine
 10
387.2068664045
 20
186.928939706
 30
0.0
 11
387.2068664045
 21
186.6361286289
 31
0.0
  0
LINE
  5
6E
330
1F
100
AcDbEntity
  8
0
  6
Continuous
 62
     7
370
    15
100
AcDbLine
 10
680.5068692178
 20
58.3861234395
 30
0.0
 11
680.5068692178
 21
43.3861228435
 31
0.0
  0
LINE
  5
6F
330
1F
100
AcDbEntity
  8
0
  6
Continuous
 62
     7
370
    15
100
AcDbLine
 10
680.5068692178
 20
58.3861234395
 30
0.0
 11
695.5068698138
 21
58.3861234395
 31
0.0
  0
ARC
  5
70
330
1F
100
AcDbEntity
  8
0
  6
Continuous
 62
     7
370
    15
100
AcDbCircle
 10
680.5068638534
 20
58.386128804
 30
0.0
 40
15.0
100
AcDbArc
 50
270.0
 51
0.0
  0
LINE
  5
71
330
1F
100
AcDbEntity
  8
0
  6
Continuous
 62
     7
370
    15
100
AcDbLine
 10
680.5068692178
 20
58.3861234395
 30
0.0
 11
680.5068692178
 21
328.3861341684
 31
0.0
  0
LINE
  5
72
330
1F
100
AcDbEntity
  8
0
  6
Continuous
 62
     7
370
    15
100
AcDbLine
 10
695.5068698138
 20
328.3861341684
 30
0.0
 11
680.5068692178
 21
328.3861341684
 31
0.0
  0
LINE
  5
73
330
1F
100
AcDbEntity
  8
0
  6
Continuous
 62
     7
370
    15
100
AcDbLine
 10
695.5068698138
 20
58.3861234395
 30
0.0
 11
695.5068698138
 21
328.3861341684
 31
0.0
  0
LINE
  5
74
330
1F
100
AcDbEntity
  8
0
  6
Continuous
 62
     7
370
    15
100
AcDbLine
 10
410.506858489
 20
43.3861228435
 30
0.0
 11
680.5068692178
 21
43.3861228435
 31
0.0
  0
LINE
  5
75
330
1F
100
AcDbEntity
  8
0
  6
Continuous
 62
     7
370
    15
100
AcDbLine
 10
410.506858489
 20
43.3861228435
 30
0.0
 11
410.506858489
 21
58.3861234395
 31
0.0
  0
LINE
  5
76
330
1F
100
AcDbEntity
  8
0
  6
Continuous
 62
     7
370
    15
100
AcDbLine
 10
410.506858489
 20
58.3861234395
 30
0.0
 11
680.5068692178
 21
58.3861234395
 31
0.0
  0
LINE
  5
77
330
1F
100
AcDbEntity
  8
0
  6
Continuous
 62
     7
370
    15
100
AcDbLine
 10
415.5068686218
 20
323.3861240356
 30
0.0
 11
675.506859085
 21
323.3861240356
 31
0.0
  0
LINE
  5
78
330
1F
100
AcDbEntity
  8
0
  6
Continuous
 62
     7
370
    15
100
AcDbLine
 10
415.5068686218
 20
63.3861335723
 30
0.0
 11
415.5068686218
 21
323.3861240356
 31
0.0
  0
LINE
  5
79
330
1F
100
AcDbEntity
  8
0
  6
Continuous
 62
     7
370
    15
100
AcDbLine
 10
675.506859085
 20
63.3861335723
 30
0.0
 11
415.5068686218
 21
63.3861335723
 31
0.0
  0
LINE
  5
7A
330
1F
100
AcDbEntity
  8
0
  6
Continuous
 62
     7
370
    15
100
AcDbLine
 10
675.506859085
 20
63.3861335723
 30
0.0
 11
675.506859085
 21
323.3861240356
 31
0.0
  0
LINE
  5
7B
330
1F
100
AcDbEntity
  8
0
  6
Continuous
 62
     7
370
    15
100
AcDbLine
 10
410.506858489
 20
58.3861234395
 30
0.0
 11
410.506858489
 21
328.3861341684
 31
0.0
  0
LINE
  5
7C
330
1F
100
AcDbEntity
  8
0
  6
Continuous
 62
     7
370
    15
100
AcDbLine
 10
410.506858489
 20
328.3861341684
 30
0.0
 11
680.5068692178
 21
328.3861341684
 31
0.0
  0
ARC
  5
7D
330
1F
100
AcDbEntity
  8
0
  6
Continuous
 62
     7
370
    15
100
AcDbCircle
 10
410.5068638534
 20
58.386128804
 30
0.0
 40
14.99999999999999
100
AcDbArc
 50
180.0
 51
270.0
  0
LINE
  5
7E
330
1F
100
AcDbEntity
  8
0
  6
Continuous
 62
     7
370
    15
100
AcDbLine
 10
395.5068578929
 20
58.3861234395
 30
0.0
 11
410.506858489
 21
58.3861234395
 31
0.0
  0
LINE
  5
7F
330
1F
100
AcDbEntity
  8
0
  6
Continuous
 62
     7
370
    15
100
AcDbLine
 10
395.5068578929
 20
183.3986366897
 30
0.0
 11
395.5068578929
 21
58.3861234395
 31
0.0
  0
LINE
  5
80
330
1F
100
AcDbEntity
  8
0
  6
Continuous
 62
     7
370
    15
100
AcDbLine
 10
395.5068578929
 20
203.3736209183
 30
0.0
 11
395.5068578929
 21
328.3861341684
 31
0.0
  0
LINE
  5
81
330
1F
100
AcDbEntity
  8
0
  6
Continuous
 62
     7
370
    15
100
AcDbLine
 10
395.5068578929
 20
328.3861341684
 30
0.0
 11
410.506858489
 21
328.3861341684
 31
0.0
  0
ARC
  5
82
330
1F
100
AcDbEntity
  8
0
  6
Continuous
 62
     7
370
    15
100
AcDbCircle
 10
680.5068638534
 20
328.386128804
 30
0.0
 40
15.0
100
AcDbArc
 50
0.0
 51
90.0
  0
LINE
  5
83
330
1F
100
AcDbEntity
  8
0
  6
Continuous
 62
     7
370
    15
100
AcDbLine
 10
680.5068692178
 20
343.3861347644
 30
0.0
 11
680.5068692178
 21
328.3861341684
 31
0.0
  0
LINE
  5
84
330
1F
100
AcDbEntity
  8
0
  6
Continuous
 62
     7
370
    15
100
AcDbLine
 10
410.506858489
 20
328.3861341684
 30
0.0
 11
410.506858489
 21
343.3861347644
 31
0.0
  0
LINE
  5
85
330
1F
100
AcDbEntity
  8
0
  6
Continuous
 62
     7
370
    15
100
AcDbLine
 10
410.506858489
 20
343.3861347644
 30
0.0
 11
680.5068692178
 21
343.3861347644
 31
0.0
  0
ARC
  5
86
330
1F
100
AcDbEntity
  8
0
  6
Continuous
 62
     7
370
    15
100
AcDbCircle
 10
410.5068638534
 20
328.386128804
 30
0.0
 40
15.0
100
AcDbArc
 50
90.0
 51
180.0
  0
LINE
  5
87
330
1F
100
AcDbEntity
  8
0
  6
Continuous
 62
     7
370
    15
100
AcDbLine
 10
394.306867382
 20
204.420611894
 30
0.0
 11
395.5068578929
 21
204.420611894
 31
0.0
  0
LINE
  5
88
330
1F
100
AcDbEntity
  8
0
  6
Continuous
 62
     7
370
    15
100
AcDbLine
 10
395.5068578929
 20
203.3736209183
 30
0.0
 11
395.5068578929
 21
183.3986366897
 31
0.0
  0
LINE
  5
89
330
1F
100
AcDbEntity
  8
0
  6
Continuous
 62
     7
370
    15
100
AcDbLine
 10
394.306867382
 20
182.3516457139
 30
0.0
 11
395.5068578929
 21
182.3516457139
 31
0.0
  0
LINE
  5
8A
330
1F
100
AcDbEntity
  8
0
  6
Continuous
 62
     7
370
    15
100
AcDbLine
 10
394.306867382
 20
182.3516457139
 30
0.0
 11
394.306867382
 21
204.420611894
 31
0.0
  0
LINE
  5
8B
330
1F
100
AcDbEntity
  8
0
  6
Continuous
 62
     7
370
    15
100
AcDbLine
 10
394.2068656892
 20
185.386128424
 30
0.0
 11
394.2068656892
 21
191.386128709
 31
0.0
  0
LINE
  5
8C
330
1F
100
AcDbEntity
  8
0
  6
Continuous
 62
     7
370
    15
100
AcDbLine
 10
394.2068656892
 20
198.3861286922
 30
0.0
 11
394.2068656892
 21
201.3861291839
 31
0.0
  0
LINE
  5
8D
330
1F
100
AcDbEntity
  8
0
  6
Continuous
 62
     7
370
    15
100
AcDbLine
 10
394.2068656892
 20
195.386128899
 30
0.0
 11
394.2068656892
 21
198.3861286922
 31
0.0
  0
LINE
  5
8E
330
1F
100
AcDbEntity
  8
0
  6
Continuous
 62
     7
370
    15
100
AcDbLine
 10
394.306867382
 20
204.420611894
 30
0.0
 11
394.306867382
 21
204.8861288263
 31
0.0
  0
LINE
  5
8F
330
1F
100
AcDbEntity
  8
0
  6
Continuous
 62
     7
370
    15
100
AcDbLine
 10
394.306867382
 20
181.8861287816
 30
0.0
 11
394.306867382
 21
182.3516457139
 31
0.0
  0
LINE
  5
90
330
1F
100
AcDbEntity
  8
0
  6
Continuous
 62
     7
370
    15
100
AcDbLine
 10
696.4082261533
 20
99.3861320226
 30
0.0
 11
707.0068707675
 21
99.3861320226
 31
0.0
  0
LINE
  5
91
330
1F
100
AcDbEntity
  8
0
  6
Continuous
 62
     7
370
    15
100
AcDbLine
 10
696.4082261533
 20
134.3861284463
 30
0.0
 11
696.4082261533
 21
99.3861320226
 31
0.0
  0
LINE
  5
92
330
1F
100
AcDbEntity
  8
0
  6
Continuous
 62
     7
370
    15
100
AcDbLine
 10
696.4082261533
 20
134.3861284463
 30
0.0
 11
707.0068707675
 21
134.3861284463
 31
0.0
  0
LINE
  5
93
330
1F
100
AcDbEntity
  8
0
  6
Continuous
 62
     7
370
    15
100
AcDbLine
 10
696.4082261533
 20
252.3861291616
 30
0.0
 11
707.0068707675
 21
252.3861291616
 31
0.0
  0
LINE
  5
94
330
1F
100
AcDbEntity
  8
0
  6
Continuous
 62
     7
370
    15
100
AcDbLine
 10
696.4082261533
 20
287.3861255853
 30
0.0
 11
696.4082261533
 21
252.3861291616
 31
0.0
  0
LINE
  5
95
330
1F
100
AcDbEntity
  8
0
  6
Continuous
 62
     7
370
    15
100
AcDbLine
 10
696.4082261533
 20
287.3861255853
 30
0.0
 11
707.0068707675
 21
287.3861255853
 31
0.0
  0
LINE
  5
96
330
1F
100
AcDbEntity
  8
0
  6
Continuous
 62
     7
370
    15
100
AcDbLine
 10
695.9447106332
 20
134.3861284463
 30
0.0
 11
695.9447106332
 21
99.3861320226
 31
0.0
  0
LINE
  5
97
330
1F
100
AcDbEntity
  8
0
  6
Continuous
 62
     7
370
    15
100
AcDbLine
 10
695.9447106332
 20
134.3861284463
 30
0.0
 11
696.4082261533
 21
134.3861284463
 31
0.0
  0
LINE
  5
98
330
1F
100
AcDbEntity
  8
0
  6
Continuous
 62
     7
370
    15
100
AcDbLine
 10
695.9447106332
 20
99.3861320226
 30
0.0
 11
696.4082261533
 21
99.3861320226
 31
0.0
  0
LINE
  5
99
330
1F
100
AcDbEntity
  8
0
  6
Continuous
 62
     7
370
    15
100
AcDbLine
 10
695.9447106332
 20
287.3861255853
 30
0.0
 11
695.9447106332
 21
252.3861291616
 31
0.0
  0
LINE
  5
9A
330
1F
100
AcDbEntity
  8
0
  6
Continuous
 62
     7
370
    15
100
AcDbLine
 10
695.9447106332
 20
287.3861255853
 30
0.0
 11
696.4082261533
 21
287.3861255853
 31
0.0
  0
LINE
  5
9B
330
1F
100
AcDbEntity
  8
0
  6
Continuous
 62
     7
370
    15
100
AcDbLine
 10
695.9447106332
 20
252.3861291616
 30
0.0
 11
696.4082261533
 21
252.3861291616
 31
0.0
  0
LINE
  5
9C
330
1F
100
AcDbEntity
  8
0
  6
Continuous
 62
     7
370
    15
100
AcDbLine
 10
695.5068698138
 20
134.3861284463
 30
0.0
 11
695.9447106332
 21
134.3861284463
 31
0.0
  0
LINE
  5
9D
330
1F
100
AcDbEntity
  8
0
  6
Continuous
 62
     7
370
    15
100
AcDbLine
 10
695.5068698138
 20
99.3861320226
 30
0.0
 11
695.9447106332
 21
99.3861320226
 31
0.0
  0
LINE
  5
9E
330
1F
100
AcDbEntity
  8
0
  6
Continuous
 62
     7
370
    15
100
AcDbLine
 10
695.5068698138
 20
287.3861255853
 30
0.0
 11
695.9447106332
 21
287.3861255853
 31
0.0
  0
LINE
  5
9F
330
1F
100
AcDbEntity
  8
0
  6
Continuous
 62
     7
370
    15
100
AcDbLine
 10
695.5068698138
 20
252.3861291616
 30
0.0
 11
695.9447106332
 21
252.3861291616
 31
0.0
  0
LINE
  5
A0
330
1F
100
AcDbEntity
  8
0
  6
Continuous
 62
     7
370
    15
100
AcDbLine
 10
388.1894042701
 20
186.8861286699
 30
0.0
 11
387.4588897437
 21
186.8861286699
 31
0.0
  0
ARC
  5
A1
330
1F
100
AcDbEntity
  8
0
  6
Continuous
 62
     7
370
    15
100
AcDbCircle
 10
387.5990183112
 20
187.9749424909
 30
0.0
 40
1.097793948007165
100
AcDbArc
 50
174.1870171141
 51
262.6664383425
  0
LINE
  5
A2
330
1F
100
AcDbEntity
  8
0
  6
Continuous
 62
     7
370
    15
100
AcDbLine
 10
386.5068694562
 20
188.0861289597
 30
0.0
 11
387.2373839826
 21
188.0861289597
 31
0.0
  0
ARC
  5
A3
330
1F
100
AcDbEntity
  8
0
  6
Continuous
 62
     7
370
    15
100
AcDbCircle
 10
388.329525543
 20
187.9749367038
 30
0.0
 40
1.097787277143276
100
AcDbArc
 50
174.1866780666
 51
262.6667773901
  0
ARC
  5
A4
330
1F
100
AcDbEntity
  8
0
  6
Continuous
 62
     7
370
    15
100
AcDbCircle
 10
388.329525543
 20
198.7973209042
 30
0.0
 40
1.097787277143272
100
AcDbArc
 50
97.3332226099
 51
185.8133219334
  0
LINE
  5
A5
330
1F
100
AcDbEntity
  8
0
  6
Continuous
 62
     7
370
    15
100
AcDbLine
 10
388.1894042701
 20
199.8861289381
 30
0.0
 11
391.7328407974
 21
199.8861289381
 31
0.0
  0
LINE
  5
A6
330
1F
100
AcDbEntity
  8
0
  6
Continuous
 62
     7
370
    15
100
AcDbLine
 10
391.7328407974
 20
199.8861289381
 30
0.0
 11
391.7328407974
 21
186.8861286699
 31
0.0
  0
LINE
  5
A7
330
1F
100
AcDbEntity
  8
0
  6
Continuous
 62
     7
370
    15
100
AcDbLine
 10
391.7328407974
 20
186.8861286699
 30
0.0
 11
388.1894042701
 21
186.8861286699
 31
0.0
  0
LINE
  5
A8
330
1F
100
AcDbEntity
  8
0
  6
Continuous
 62
     7
370
    15
100
AcDbLine
 10
387.2373839826
 20
198.6861286482
 30
0.0
 11
387.2373839826
 21
188.0861289597
 31
0.0
  0
LINE
  5
A9
330
1F
100
AcDbEntity
  8
0
  6
Continuous
 62
     7
370
    15
100
AcDbLine
 10
387.2373839826
 20
198.6861286482
 30
0.0
 11
386.5068694562
 21
198.6861286482
 31
0.0
  0
LINE
  5
AA
330
1F
100
AcDbEntity
  8
0
  6
Continuous
 62
     7
370
    15
100
AcDbLine
 10
386.5068694562
 20
198.6861286482
 30
0.0
 11
386.5068694562
 21
188.0861289597
 31
0.0
  0
LINE
  5
AB
330
1F
100
AcDbEntity
  8
0
  6
Continuous
 62
     7
370
    15
100
AcDbLine
 10
387.4588897437
 20
199.8861289381
 30
0.0
 11
388.1894042701
 21
199.8861289381
 31
0.0
  0
ARC
  5
AC
330
1F
100
AcDbEntity
  8
0
  6
Continuous
 62
     7
370
    15
100
AcDbCircle
 10
387.5990183112
 20
198.797315117
 30
0.0
 40
1.097793948007137
100
AcDbArc
 50
97.3335616575
 51
185.8129828859
  0
LINE
  5
AD
330
1F
100
AcDbEntity
  8
0
  6
Continuous
 62
     7
370
    15
100
AcDbLine
 10
391.8143799514
 20
199.8861289381
 30
0.0
 11
391.7328407974
 21
199.8861289381
 31
0.0
  0
LINE
  5
AE
330
1F
100
AcDbEntity
  8
0
  6
Continuous
 62
     7
370
    15
100
AcDbLine
 10
391.7328407974
 20
186.8861286699
 30
0.0
 11
391.8663701028
 21
186.8861286699
 31
0.0
  0
SPLINE
  5
AF
330
1F
100
AcDbEntity
  8
0
  6
Continuous
 62
     7
370
    15
100
AcDbSpline
210
0.0
220
0.0
230
1.0
 70
    24
 71
     3
 72
    12
 73
     8
 74
     0
 42
0.00000001
 43
0.00000001
 40
0.0
 40
0.0
 40
0.0
 40
0.0
 40
0.2185045281652869
 40
0.4370083809750159
 40
0.655518221401872
 40
0.8740244204541278
 40
1.0
 40
1.0
 40
1.0
 40
1.0
 10
393.666206857611
 20
200.0785238838441
 30
0.0
 10
393.4694874391113
 20
200.0785238838441
 30
0.0
 10
393.0760492101337
 20
200.0785238838441
 30
0.0
 10
392.5152884332703
 20
200.0785238838441
 30
0.0
 10
392.0976244520853
 20
200.0785238838441
 30
0.0
 10
391.8710574037627
 20
200.0785238838441
 30
0.0
 10
391.8885853390985
 20
200.0785238838441
 30
0.0
 10
391.8949952334655
 20
200.0785238838441
 30
0.0
  0
SPLINE
  5
B0
330
1F
100
AcDbEntity
  8
0
  6
Continuous
 62
     7
370
    15
100
AcDbSpline
210
0.0
220
0.0
230
1.0
 70
    24
 71
     3
 72
     9
 73
     5
 74
     0
 42
0.00000001
 43
0.00000001
 40
0.0
 40
0.0
 40
0.0
 40
0.0
 40
0.0025141086251864
 40
1.0
 40
1.0
 40
1.0
 40
1.0
 10
394.2068656892073
 20
200.0785238838441
 30
0.0
 10
394.206518128271
 20
200.0785238838441
 30
0.0
 10
394.0682739279685
 20
200.0785238838442
 30
0.0
 10
393.8669873646472
 20
200.0785238838442
 30
0.0
 10
393.666206857611
 20
200.0785238838441
 30
0.0
  0
SPLINE
  5
B1
330
1F
100
AcDbEntity
  8
0
  6
Continuous
 62
     7
370
    15
100
AcDbSpline
210
0.0
220
0.0
230
1.0
 70
     8
 71
     3
 72
    13
 73
     9
 74
     0
 42
0.00000001
 43
0.00000001
 40
0.0
 40
0.0
 40
0.0
 40
0.0
 40
0.1877343531938777
 40
0.3754727167530941
 40
0.5632110648104007
 40
0.7509477880705518
 40
0.9386848209004788
 40
0.9999999999999999
 40
0.9999999999999999
 40
0.9999999999999999
 40
0.9999999999999999
 10
393.3729222029937
 20
203.6933625845856
 30
0.0
 10
393.1762306158057
 20
203.6906622885463
 30
0.0
 10
392.7828432397205
 20
203.6852616387842
 30
0.0
 10
392.2498252333173
 20
203.3947296374027
 30
0.0
 10
391.8592980557629
 20
202.9398260723489
 30
0.0
 10
391.6863570142304
 20
202.3781451801442
 30
0.0
 10
391.6896272093462
 20
201.904947698387
 30
0.0
 10
391.8169610566193
 20
201.6835164171867
 30
0.0
 10
391.8483098954451
 20
201.6290013475961
 30
0.0
  0
SPLINE
  5
B2
330
1F
100
AcDbEntity
  8
0
  6
Continuous
 62
     7
370
    15
100
AcDbSpline
210
0.0
220
0.0
230
1.0
 70
     8
 71
     3
 72
    10
 73
     6
 74
     0
 42
0.00000001
 43
0.00000001
 40
0.0
 40
0.0
 40
0.0
 40
0.0
 40
0.2093428725105197
 40
0.6046699278794417
 40
0.9999999999999999
 40
0.9999999999999999
 40
0.9999999999999999
 40
0.9999999999999999
 10
394.5101043195021
 20
202.887247948224
 30
0.0
 10
394.4683962859668
 20
202.9803114039681
 30
0.0
 10
394.3479260099676
 20
203.2491176565916
 30
0.0
 10
393.9412298543381
 20
203.5657803294715
 30
0.0
 10
393.5623585686362
 20
203.6508350580388
 30
0.0
 10
393.3729222029937
 20
203.6933625845856
 30
0.0
  0
SPLINE
  5
B3
330
1F
100
AcDbEntity
  8
0
  6
Continuous
 62
     7
370
    15
100
AcDbSpline
210
0.0
220
0.0
230
1.0
 70
     8
 71
     3
 72
    13
 73
     9
 74
     0
 42
0.00000001
 43
0.00000001
 40
0.0
 40
0.0
 40
0.0
 40
0.0
 40
0.1768614158016835
 40
0.3537267399476782
 40
0.5305919192438419
 40
0.7074547270595563
 40
0.8843194473083311
 40
1.0
 40
1.0
 40
1.0
 40
1.0
 10
393.3556964606536
 20
183.0501758291072
 30
0.0
 10
393.1590293341125
 20
183.0528665767789
 30
0.0
 10
392.7656907350125
 20
183.0582481315834
 30
0.0
 10
392.2323056989057
 20
183.3489235377605
 30
0.0
 10
391.843175515608
 20
183.8032862406018
 30
0.0
 10
391.6650149884881
 20
184.3669844132505
 30
0.0
 10
391.6859764012124
 20
184.9001313145314
 30
0.0
 10
391.852070909722
 20
185.1734026397437
 30
0.0
 10
391.9177493066085
 20
185.2814617364353
 30
0.0
  0
SPLINE
  5
B4
330
1F
100
AcDbEntity
  8
0
  6
Continuous
 62
     7
370
    15
100
AcDbSpline
210
0.0
220
0.0
230
1.0
 70
     8
 71
     3
 72
    10
 73
     6
 74
     0
 42
0.00000001
 43
0.00000001
 40
0.0
 40
0.0
 40
0.0
 40
0.0
 40
0.0588212984257692
 40
0.5294125327652901
 40
1.0
 40
1.0
 40
1.0
 40
1.0
 10
394.3858137339843
 20
183.6500854029006
 30
0.0
 10
394.3751792058443
 20
183.6286050669894
 30
0.0
 10
394.2794646835883
 20
183.4352744309142
 30
0.0
 10
393.9185769316402
 20
183.1811057342302
 30
0.0
 10
393.5433227836592
 20
183.0938190143587
 30
0.0
 10
393.3556964606536
 20
183.0501758291072
 30
0.0
  0
SPLINE
  5
B5
330
1F
100
AcDbEntity
  8
0
  6
Continuous
 62
     7
370
    15
100
AcDbSpline
210
0.0
220
0.0
230
1.0
 70
    24
 71
     3
 72
    12
 73
     8
 74
     0
 42
0.00000001
 43
0.00000001
 40
0.0
 40
0.0
 40
0.0
 40
0.0
 40
0.2193538838170249
 40
0.4387070896532966
 40
0.6580663063813456
 40
0.8774218675802953
 40
1.0
 40
1.0
 40
1.0
 40
1.0
 10
393.666206857611
 20
186.5198930523044
 30
0.0
 10
393.469492122911
 20
186.5198930523044
 30
0.0
 10
393.0760632615188
 20
186.5198930523044
 30
0.0
 10
392.5152322272912
 20
186.5198930523044
 30
0.0
 10
392.0978352294953
 20
186.5198930523044
 30
0.0
 10
391.8719754926497
 20
186.5198930523044
 30
0.0
 10
391.8889645237082
 20
186.5198930523044
 30
0.0
 10
391.8950548381102
 20
186.5198930523044
 30
0.0
  0
SPLINE
  5
B6
330
1F
100
AcDbEntity
  8
0
  6
Continuous
 62
     7
370
    15
100
AcDbSpline
210
0.0
220
0.0
230
1.0
 70
    24
 71
     3
 72
     9
 73
     5
 74
     0
 42
0.00000001
 43
0.00000001
 40
0.0
 40
0.0
 40
0.0
 40
0.0
 40
0.1970130322720919
 40
1.0
 40
1.0
 40
1.0
 40
1.0
 10
394.3068673819793
 20
186.5198930523044
 30
0.0
 10
394.2742151860547
 20
186.5198930523044
 30
0.0
 10
394.1084789626791
 20
186.5198930523044
 30
0.0
 10
393.8631792944149
 20
186.5198930523044
 30
0.0
 10
393.666206857611
 20
186.5198930523044
 30
0.0
  0
SPLINE
  5
B7
330
1F
100
AcDbEntity
  8
0
  6
Continuous
 62
     7
370
    15
100
AcDbSpline
210
0.0
220
0.0
230
1.0
 70
     8
 71
     3
 72
    13
 73
     9
 74
     0
 42
0.00000001
 43
0.00000001
 40
0.0
 40
0.0
 40
0.0
 40
0.0
 40
0.1768614774712451
 40
0.3537265172110513
 40
0.530591640972232
 40
0.7074548960608414
 40
0.8843190982005572
 40
0.9999999999999999
 40
0.9999999999999999
 40
0.9999999999999999
 40
0.9999999999999999
 10
391.8038448304427
 20
206.3097811101622
 30
0.0
 10
391.6071778065078
 20
206.3070902801675
 30
0.0
 10
391.2138397974546
 20
206.3017085659805
 30
0.0
 10
390.6804536325365
 20
206.0110349249729
 30
0.0
 10
390.2913235237671
 20
205.556669068693
 30
0.0
 10
390.1131635157109
 20
204.9929749754519
 30
0.0
 10
390.134125308529
 20
204.4598238716635
 30
0.0
 10
390.3002192626015
 20
204.186554081181
 30
0.0
 10
390.3658976763976
 20
204.0784952028341
 30
0.0
  0
SPLINE
  5
B8
330
1F
100
AcDbEntity
  8
0
  6
Continuous
 62
     7
370
    15
100
AcDbSpline
210
0.0
220
0.0
230
1.0
 70
     8
 71
     3
 72
    10
 73
     6
 74
     0
 42
0.00000001
 43
0.00000001
 40
0.0
 40
0.0
 40
0.0
 40
0.0
 40
0.1474573734895173
 40
0.573730886909061
 40
1.0
 40
1.0
 40
1.0
 40
1.0
 10
392.892434260298
 20
205.5972550793237
 30
0.0
 10
392.8643777134348
 20
205.6575494352206
 30
0.0
 10
392.7552145896486
 20
205.8921442436436
 30
0.0
 10
392.3701346578308
 20
206.1809517031063
 30
0.0
 10
391.9926074567135
 20
206.2668381222421
 30
0.0
 10
391.8038448304427
 20
206.3097811101622
 30
0.0
  0
SPLINE
  5
B9
330
1F
100
AcDbEntity
  8
0
  6
Continuous
 62
     7
370
    15
100
AcDbSpline
210
0.0
220
0.0
230
1.0
 70
     8
 71
     3
 72
    13
 73
     9
 74
     0
 42
0.00000001
 43
0.00000001
 40
0.0
 40
0.0
 40
0.0
 40
0.0
 40
0.1768652274756148
 40
0.3537298964291658
 40
0.5305915122055381
 40
0.7074553349849598
 40
0.8843190100278324
 40
1.0
 40
1.0
 40
1.0
 40
1.0
 10
391.7866339892638
 20
180.4337573035306
 30
0.0
 10
391.5899621586136
 20
180.4364476397194
 30
0.0
 10
391.1966191183824
 20
180.4418283036011
 30
0.0
 10
390.6632264263669
 20
180.7324998259217
 30
0.0
 10
390.2741188174878
 20
181.1868769426996
 30
0.0
 10
390.0959319166265
 20
181.7505602309784
 30
0.0
 10
390.1169008071127
 20
182.2837158144081
 30
0.0
 10
390.2829937654162
 20
182.5569845178638
 30
0.0
 10
390.3486719340575
 20
182.6650432108588
 30
0.0
  0
SPLINE
  5
BA
330
1F
100
AcDbEntity
  8
0
  6
Continuous
 62
     7
370
    15
100
AcDbSpline
210
0.0
220
0.0
230
1.0
 70
     8
 71
     3
 72
    10
 73
     6
 74
     0
 42
0.00000001
 43
0.00000001
 40
0.0
 40
0.0
 40
0.0
 40
0.0
 40
0.147458888279366
 40
0.5737367806918053
 40
1.0
 40
1.0
 40
1.0
 40
1.0
 10
392.875208517958
 20
181.1462833343691
 30
0.0
 10
392.8471519750058
 20
181.0859889697378
 30
0.0
 10
392.7379888664365
 20
180.8513941273306
 30
0.0
 10
392.3529126073374
 20
180.5625902668422
 30
0.0
 10
391.9753913627794
 20
180.4767011318879
 30
0.0
 10
391.7866339892638
 20
180.4337573035306
 30
0.0
  0
LINE
  5
BB
330
1F
100
AcDbEntity
  8
0
  6
Continuous
 62
     7
370
    15
100
AcDbLine
 10
386.5068694562
 20
197.2861286982
 30
0.0
 11
386.4020546884
 21
197.2861286982
 31
0.0
  0
LINE
  5
BC
330
1F
100
AcDbEntity
  8
0
  6
Continuous
 62
     7
370
    15
100
AcDbLine
 10
386.5068694562
 20
188.6861288718
 30
0.0
 11
386.4020546884
 21
188.6861288718
 31
0.0
  0
LINE
  5
BD
330
1F
100
AcDbEntity
  8
0
  6
Continuous
 62
     7
370
    15
100
AcDbLine
 10
391.835330984
 20
201.3861291839
 30
0.0
 11
387.0074739665
 21
201.3861291839
 31
0.0
  0
LINE
  5
BE
330
1F
100
AcDbEntity
  8
0
  6
Continuous
 62
     7
370
    15
100
AcDbLine
 10
391.8327977866
 20
200.5861286803
 30
0.0
 11
387.0068630189
 21
200.5861286803
 31
0.0
  0
LINE
  5
BF
330
1F
100
AcDbEntity
  8
0
  6
Continuous
 62
     7
370
    15
100
AcDbLine
 10
391.8727477998
 20
186.1861289276
 30
0.0
 11
387.0068630189
 21
186.1861289276
 31
0.0
  0
LINE
  5
C0
330
1F
100
AcDbEntity
  8
0
  6
Continuous
 62
     7
370
    15
100
AcDbLine
 10
391.8810179443
 20
185.386128424
 30
0.0
 11
387.0074739665
 21
185.386128424
 31
0.0
  0
LINE
  5
C1
330
1F
100
AcDbEntity
  8
0
  6
Continuous
 62
     7
370
    15
100
AcDbLine
 10
390.6068643541
 20
201.6861286743
 30
0.0
 11
391.7702278108
 21
201.6861286743
 31
0.0
  0
LINE
  5
C2
330
1F
100
AcDbEntity
  8
0
  6
Continuous
 62
     7
370
    15
100
AcDbLine
 10
391.9333806247
 20
201.6861286743
 30
0.0
 11
391.995712182
 21
201.6861286743
 31
0.0
  0
LINE
  5
C3
330
1F
100
AcDbEntity
  8
0
  6
Continuous
 62
     7
370
    15
100
AcDbLine
 10
388.4068569154
 20
201.6861286743
 30
0.0
 11
390.6068643541
 21
201.6861286743
 31
0.0
  0
LINE
  5
C4
330
1F
100
AcDbEntity
  8
0
  6
Continuous
 62
     7
370
    15
100
AcDbLine
 10
390.6068643541
 20
184.9861291035
 30
0.0
 11
391.710250637
 21
184.9861291035
 31
0.0
  0
LINE
  5
C5
330
1F
100
AcDbEntity
  8
0
  6
Continuous
 62
     7
370
    15
100
AcDbLine
 10
388.5068586082
 20
184.9861291035
 30
0.0
 11
390.6068643541
 21
184.9861291035
 31
0.0
  0
LINE
  5
C6
330
1F
100
AcDbEntity
  8
0
  6
Continuous
 62
     7
370
    15
100
AcDbLine
 10
390.6068643541
 20
184.5861288516
 30
0.0
 11
391.4703717441
 21
184.5861288516
 31
0.0
  0
LINE
  5
C7
330
1F
100
AcDbEntity
  8
0
  6
Continuous
 62
     7
370
    15
100
AcDbLine
 10
388.5068586082
 20
184.5861288516
 30
0.0
 11
390.6068643541
 21
184.5861288516
 31
0.0
  0
ARC
  5
C8
330
1F
100
AcDbEntity
  8
0
  6
Continuous
 62
     7
370
    15
100
AcDbCircle
 10
387.4726494911
 20
186.1838924409
 30
0.0
 40
0.8027495456831002
100
AcDbArc
 50
179.8403718595
 51
234.5326562665
  0
ARC
  5
C9
330
1F
100
AcDbEntity
  8
0
  6
Continuous
 62
     7
370
    15
100
AcDbCircle
 10
387.4726494911
 20
200.588365167
 30
0.0
 40
0.8027495456831002
100
AcDbArc
 50
125.4673437335
 51
180.1596281405
  0
LINE
  5
CA
330
1F
100
AcDbEntity
  8
0
  6
Continuous
 62
     7
370
    15
100
AcDbLine
 10
387.4577572555
 20
186.6361286289
 30
0.0
 11
387.4577572555
 21
186.1861289276
 31
0.0
  0
LINE
  5
CB
330
1F
100
AcDbEntity
  8
0
  6
Continuous
 62
     7
370
    15
100
AcDbLine
 10
387.4577572555
 20
200.5861286803
 30
0.0
 11
387.4577572555
 21
200.1361289791
 31
0.0
  0
LINE
  5
CC
330
1F
100
AcDbEntity
  8
0
  6
Continuous
 62
     7
370
    15
100
AcDbLine
 10
386.6699030608
 20
186.1861289276
 30
0.0
 11
386.6699030608
 21
187.4145708776
 31
0.0
  0
LINE
  5
CD
330
1F
100
AcDbEntity
  8
0
  6
Continuous
 62
     7
370
    15
100
AcDbLine
 10
386.6699030608
 20
199.3576867303
 30
0.0
 11
386.6699030608
 21
200.5861286803
 31
0.0
  0
LINE
  5
CE
330
1F
100
AcDbEntity
  8
0
  6
Continuous
 62
     7
370
    15
100
AcDbLine
 10
696.4082261533
 20
98.3861299961
 30
0.0
 11
696.4082261533
 21
63.3861335723
 31
0.0
  0
LINE
  5
CF
330
1F
100
AcDbEntity
  8
0
  6
Continuous
 62
     7
370
    15
100
AcDbLine
 10
707.0068707675
 20
63.3861335723
 30
0.0
 11
696.4082261533
 21
63.3861335723
 31
0.0
  0
LINE
  5
D0
330
1F
100
AcDbEntity
  8
0
  6
Continuous
 62
     7
370
    15
100
AcDbLine
 10
707.0068707675
 20
98.3861299961
 30
0.0
 11
696.4082261533
 21
98.3861299961
 31
0.0
  0
LINE
  5
D1
330
1F
100
AcDbEntity
  8
0
  6
Continuous
 62
     7
370
    15
100
AcDbLine
 10
696.4082261533
 20
323.3861240356
 30
0.0
 11
696.4082261533
 21
288.3861276119
 31
0.0
  0
LINE
  5
D2
330
1F
100
AcDbEntity
  8
0
  6
Continuous
 62
     7
370
    15
100
AcDbLine
 10
707.0068707675
 20
288.3861276119
 30
0.0
 11
696.4082261533
 21
288.3861276119
 31
0.0
  0
LINE
  5
D3
330
1F
100
AcDbEntity
  8
0
  6
Continuous
 62
     7
370
    15
100
AcDbLine
 10
707.0068707675
 20
323.3861240356
 30
0.0
 11
696.4082261533
 21
323.3861240356
 31
0.0
  0
LINE
  5
D4
330
1F
100
AcDbEntity
  8
0
  6
Continuous
 62
     7
370
    15
100
AcDbLine
 10
704.0068646878
 20
135.3861304729
 30
0.0
 11
699.0068694562
 21
135.3861304729
 31
0.0
  0
LINE
  5
D5
330
1F
100
AcDbEntity
  8
0
  6
Continuous
 62
     7
370
    15
100
AcDbLine
 10
699.0068694562
 20
251.386127135
 30
0.0
 11
704.0068646878
 21
251.386127135
 31
0.0
  0
LINE
  5
D6
330
1F
100
AcDbEntity
  8
0
  6
Continuous
 62
     7
370
    15
100
AcDbLine
 10
695.9447106332
 20
63.3861335723
 30
0.0
 11
695.9447106332
 21
98.3861299961
 31
0.0
  0
LINE
  5
D7
330
1F
100
AcDbEntity
  8
0
  6
Continuous
 62
     7
370
    15
100
AcDbLine
 10
696.4082261533
 20
63.3861335723
 30
0.0
 11
695.9447106332
 21
63.3861335723
 31
0.0
  0
LINE
  5
D8
330
1F
100
AcDbEntity
  8
0
  6
Continuous
 62
     7
370
    15
100
AcDbLine
 10
695.9447106332
 20
98.3861299961
 30
0.0
 11
696.4082261533
 21
98.3861299961
 31
0.0
  0
LINE
  5
D9
330
1F
100
AcDbEntity
  8
0
  6
Continuous
 62
     7
370
    15
100
AcDbLine
 10
695.9447106332
 20
288.3861276119
 30
0.0
 11
695.9447106332
 21
323.3861240356
 31
0.0
  0
LINE
  5
DA
330
1F
100
AcDbEntity
  8
0
  6
Continuous
 62
     7
370
    15
100
AcDbLine
 10
696.4082261533
 20
288.3861276119
 30
0.0
 11
695.9447106332
 21
288.3861276119
 31
0.0
  0
LINE
  5
DB
330
1F
100
AcDbEntity
  8
0
  6
Continuous
 62
     7
370
    15
100
AcDbLine
 10
695.9447106332
 20
323.3861240356
 30
0.0
 11
696.4082261533
 21
323.3861240356
 31
0.0
  0
LINE
  5
DC
330
1F
100
AcDbEntity
  8
0
  6
Continuous
 62
     7
370
    15
100
AcDbLine
 10
695.9447106332
 20
288.3861276119
 30
0.0
 11
695.5068698138
 21
288.3861276119
 31
0.0
  0
LINE
  5
DD
330
1F
100
AcDbEntity
  8
0
  6
Continuous
 62
     7
370
    15
100
AcDbLine
 10
695.9447106332
 20
323.3861240356
 30
0.0
 11
695.5068698138
 21
323.3861240356
 31
0.0
  0
LINE
  5
DE
330
1F
100
AcDbEntity
  8
0
  6
Continuous
 62
     7
370
    15
100
AcDbLine
 10
695.9447106332
 20
63.3861335723
 30
0.0
 11
695.5068698138
 21
63.3861335723
 31
0.0
  0
LINE
  5
DF
330
1F
100
AcDbEntity
  8
0
  6
Continuous
 62
     7
370
    15
100
AcDbLine
 10
695.9447106332
 20
98.3861299961
 30
0.0
 11
695.5068698138
 21
98.3861299961
 31
0.0
  0
LINE
  5
E0
330
1F
100
AcDbEntity
  8
0
  6
Continuous
 62
     7
370
    15
100
AcDbLine
 10
390.3068592757
 20
200.1361289791
 30
0.0
 11
387.2068664045
 21
200.1361289791
 31
0.0
  0
LINE
  5
E1
330
1F
100
AcDbEntity
  8
0
  6
Continuous
 62
     7
370
    15
100
AcDbLine
 10
390.3068592757
 20
186.6361286289
 30
0.0
 11
391.8663701028
 21
186.6361286289
 31
0.0
  0
LINE
  5
E2
330
1F
100
AcDbEntity
  8
0
  6
Continuous
 62
     7
370
    15
100
AcDbLine
 10
390.3068592757
 20
200.1361289791
 30
0.0
 11
391.8669363469
 21
200.1361289791
 31
0.0
  0
LINE
  5
E3
330
1F
100
AcDbEntity
  8
0
  6
Continuous
 62
     7
370
    15
100
AcDbLine
 10
390.3068592757
 20
186.6361286289
 30
0.0
 11
387.2068664045
 21
186.6361286289
 31
0.0
  0
LINE
  5
E4
330
1F
100
AcDbEntity
  8
0
  6
Continuous
 62
     8
370
    15
100
AcDbLine
 10
390.3068592757
 20
200.1361289791
 30
0.0
 11
390.3068592757
 21
199.8861289381
 31
0.0
  0
LINE
  5
E5
330
1F
100
AcDbEntity
  8
0
  6
Continuous
 62
     8
370
    15
100
AcDbLine
 10
390.3068592757
 20
186.8861286699
 30
0.0
 11
390.3068592757
 21
186.6361286289
 31
0.0
  0
LINE
  5
E6
330
1F
100
AcDbEntity
  8
0
  6
Continuous
 62
     7
370
    15
100
AcDbLine
 10
252.7455733776
 20
199.8861289381
 30
0.0
 11
252.7455733776
 21
186.8861286699
 31
0.0
  0
SPLINE
  5
E7
330
1F
100
AcDbEntity
  8
0
  6
Continuous
 62
     7
370
    15
100
AcDbSpline
210
0.0
220
0.0
230
1.0
 70
     8
 71
     3
 72
    15
 73
    11
 74
     0
 42
0.00000001
 43
0.00000001
 40
0.0
 40
0.0
 40
0.0
 40
0.0
 40
0.1356028663338301
 40
0.2953315886943306
 40
0.4038095484465317
 40
0.5319635813589845
 40
0.6738457581954921
 40
0.8261073253668793
 40
0.9126171788294358
 40
1.0
 40
1.0
 40
1.0
 40
1.0
 10
241.7255760788748
 20
187.9521740398056
 30
0.0
 10
241.7699575522304
 20
187.9448509265726
 30
0.0
 10
241.8666166523589
 20
187.9289018045239
 30
0.0
 10
242.0734677818766
 20
187.9765678047998
 30
0.0
 10
242.2667281571024
 20
188.0642987010964
 30
0.0
 10
242.4133166537242
 20
188.1839582437456
 30
0.0
 10
242.5120192932511
 20
188.3348478439706
 30
0.0
 10
242.54168665913
 20
188.4567018462395
 30
0.0
 10
242.5204976695026
 20
188.5859444543168
 30
0.0
 10
242.4742445282347
 20
188.6526224879868
 30
0.0
 10
242.4510018586943
 20
188.6861288717634
 30
0.0
  0
SPLINE
  5
E8
330
1F
100
AcDbEntity
  8
0
  6
Continuous
 62
     7
370
    15
100
AcDbSpline
210
0.0
220
0.0
230
1.0
 70
     8
 71
     3
 72
    20
 73
    16
 74
     0
 42
0.00000001
 43
0.00000001
 40
0.0
 40
0.0
 40
0.0
 40
0.0
 40
0.0607086123965684
 40
0.2265341556312683
 40
0.3908035227156336
 40
0.47059495370885
 40
0.5476205410215486
 40
0.6228560695700163
 40
0.7003373840453081
 40
0.7786475224298974
 40
0.856657977712297
 40
0.933101309579349
 40
0.970373601682483
 40
0.9892352123565442
 40
1.0
 40
1.0
 40
1.0
 40
1.0
 10
237.989378130419
 20
188.6861288717634
 30
0.0
 10
238.0356526913785
 20
188.6327954742721
 30
0.0
 10
238.2083261915681
 20
188.4337819292297
 30
0.0
 10
238.6252996038424
 20
188.4158551761986
 30
0.0
 10
239.1902540608514
 20
188.3408322134643
 30
0.0
 10
239.70986677089
 20
188.2978900305839
 30
0.0
 10
240.1037578595122
 20
188.2673394694598
 30
0.0
 10
240.4966682212751
 20
188.239655981788
 30
0.0
 10
240.8778305228847
 20
188.2083494822802
 30
0.0
 10
241.2335556506219
 20
188.1758765223094
 30
0.0
 10
241.536186177173
 20
188.1450506444575
 30
0.0
 10
241.7286864907196
 20
188.1221483146205
 30
0.0
 10
241.8168165698827
 20
188.1141208908641
 30
0.0
 10
241.8622397120269
 20
188.1063263166875
 30
0.0
 10
241.8616840280046
 20
188.1102851278531
 30
0.0
 10
241.8614821195433
 20
188.1117235666758
 30
0.0
  0
SPLINE
  5
E9
330
1F
100
AcDbEntity
  8
0
  6
Continuous
 62
     7
370
    15
100
AcDbSpline
210
0.0
220
0.0
230
1.0
 70
     8
 71
     3
 72
    18
 73
    14
 74
     0
 42
0.00000001
 43
0.00000001
 40
0.0
 40
0.0
 40
0.0
 40
0.0
 40
0.0057536117614248
 40
0.1156379965053346
 40
0.2383937881526184
 40
0.3593078905080883
 40
0.4757042930345473
 40
0.5872128412016234
 40
0.7047314987254447
 40
0.8265010043940745
 40
0.8891454358173227
 40
0.951792939132898
 40
1.0
 40
1.0
 40
1.0
 40
1.0
 10
242.2321932077238
 20
197.3329528032488
 30
0.0
 10
242.2275460449516
 20
197.3359062800687
 30
0.0
 10
242.134145827018
 20
197.3952662362748
 30
0.0
 10
241.9117832166633
 20
197.401449794889
 30
0.0
 10
241.5204059140333
 20
197.4606460752263
 30
0.0
 10
241.0085156797613
 20
197.5061931866477
 30
0.0
 10
240.4574903332729
 20
197.5523447411909
 30
0.0
 10
239.8953740109988
 20
197.5912409138237
 30
0.0
 10
239.3610944555127
 20
197.6359709877709
 30
0.0
 10
238.9634597442157
 20
197.6770414029984
 30
0.0
 10
238.7487310305108
 20
197.698162766158
 30
0.0
 10
238.6526639366552
 20
197.70045180227
 30
0.0
 10
238.6372280564745
 20
197.684376700589
 30
0.0
 10
238.6305154919455
 20
197.6773861593253
 30
0.0
  0
SPLINE
  5
EA
330
1F
100
AcDbEntity
  8
0
  6
Continuous
 62
     7
370
    15
100
AcDbSpline
210
0.0
220
0.0
230
1.0
 70
     8
 71
     3
 72
    12
 73
     8
 74
     0
 42
0.00000001
 43
0.00000001
 40
0.0
 40
0.0
 40
0.0
 40
0.0
 40
0.2236729820054967
 40
0.4523097742282867
 40
0.6822372678484837
 40
0.9102273613192214
 40
1.0
 40
1.0
 40
1.0
 40
1.0
 10
237.9312785029242
 20
198.4879795259482
 30
0.0
 10
237.9185430839018
 20
198.4454315982991
 30
0.0
 10
237.892789618056
 20
198.3593915080912
 30
0.0
 10
238.0139126230414
 20
198.2677764562074
 30
0.0
 10
238.2455939257047
 20
198.1714710932078
 30
0.0
 10
238.4904503657215
 20
198.1089800348667
 30
0.0
 10
238.6737832246122
 20
198.1142001777983
 30
0.0
 10
238.7255774497816
 20
198.1156749448425
 30
0.0
  0
SPLINE
  5
EB
330
1F
100
AcDbEntity
  8
0
  6
Continuous
 62
     7
370
    15
100
AcDbSpline
210
0.0
220
0.0
230
1.0
 70
     8
 71
     3
 72
    19
 73
    15
 74
     0
 42
0.00000001
 43
0.00000001
 40
0.0
 40
0.0
 40
0.0
 40
0.0
 40
0.0979033736757284
 40
0.1753767752232956
 40
0.2884822032961697
 40
0.3734525700840743
 40
0.4570022720946865
 40
0.6168867031555729
 40
0.6796659019373148
 40
0.7634255342528317
 40
0.8137555855017751
 40
0.8702971455237448
 40
0.9323987944767276
 40
1.0
 40
1.0
 40
1.0
 40
1.0
 10
238.1075145363638
 20
197.9928488640732
 30
0.0
 10
238.1580216406625
 20
197.9664718695791
 30
0.0
 10
238.2484962866854
 20
197.9192220960445
 30
0.0
 10
238.6231397066621
 20
197.8585734638954
 30
0.0
 10
239.1096521003637
 20
197.8046866832933
 30
0.0
 10
239.7009800232527
 20
197.7514531771821
 30
0.0
 10
240.4550825290628
 20
197.6999034641858
 30
0.0
 10
241.0961732510503
 20
197.6329595888209
 30
0.0
 10
241.7454493571245
 20
197.5974398199405
 30
0.0
 10
242.1237797460431
 20
197.6756272444661
 30
0.0
 10
242.3756329471522
 20
197.7838241474228
 30
0.0
 10
242.5092298300733
 20
197.8721665836343
 30
0.0
 10
242.5709868058283
 20
197.9460071815984
 30
0.0
 10
242.4995514440255
 20
198.0265225171345
 30
0.0
 10
242.462319290621
 20
198.0684871582932
 30
0.0
  0
SPLINE
  5
EC
330
1F
100
AcDbEntity
  8
0
  6
Continuous
 62
     7
370
    15
100
AcDbSpline
210
0.0
220
0.0
230
1.0
 70
     8
 71
     3
 72
    25
 73
    21
 74
     0
 42
0.00000001
 43
0.00000001
 40
0.0
 40
0.0
 40
0.0
 40
0.0
 40
0.0176268899162512
 40
0.0344980499122053
 40
0.050315126133779
 40
0.0649738322073702
 40
0.090944518425799
 40
0.1134381532453552
 40
0.1538408905572516
 40
0.191235137456296
 40
0.2995722695172233
 40
0.3999649734684962
 40
0.5012971299072176
 40
0.5949075374227529
 40
0.6784886355470741
 40
0.733631620823079
 40
0.8075209696764402
 40
0.8952853682008521
 40
0.945310775473205
 40
1.0
 40
1.0
 40
1.0
 40
1.0
 10
242.1049968957731
 20
197.4429052120692
 30
0.0
 10
242.1447075617443
 20
197.447299670645
 30
0.0
 10
242.2224263506645
 20
197.4559001811154
 30
0.0
 10
242.3243062299728
 20
197.5019033088166
 30
0.0
 10
242.4053215812274
 20
197.5608629619139
 30
0.0
 10
242.4815210371391
 20
197.6444353537098
 30
0.0
 10
242.5345743250729
 20
197.7480887626454
 30
0.0
 10
242.5587326025528
 20
197.8804213112401
 30
0.0
 10
242.5358435713179
 20
198.0122824548415
 30
0.0
 10
242.3646060586202
 20
198.257498219026
 30
0.0
 10
242.021811457277
 20
198.3445780306751
 30
0.0
 10
241.526699234936
 20
198.4031335497954
 30
0.0
 10
240.9134859154263
 20
198.4614907869555
 30
0.0
 10
240.2640197944016
 20
198.5111127548346
 30
0.0
 10
239.7243111840639
 20
198.55059489661
 30
0.0
 10
239.2783171980248
 20
198.5897699932668
 30
0.0
 10
238.8895941490052
 20
198.6279992546711
 30
0.0
 10
238.6294484690052
 20
198.6558411325936
 30
0.0
 10
238.4990088927397
 20
198.6783346734891
 30
0.0
 10
238.490343456449
 20
198.6907980668966
 30
0.0
 10
238.4858177661726
 20
198.6973073131091
 30
0.0
  0
SPLINE
  5
ED
330
1F
100
AcDbEntity
  8
0
  6
Continuous
 62
     7
370
    15
100
AcDbSpline
210
0.0
220
0.0
230
1.0
 70
     8
 71
     3
 72
    12
 73
     8
 74
     0
 42
0.00000001
 43
0.00000001
 40
0.0
 40
0.0
 40
0.0
 40
0.0
 40
0.175647670400461
 40
0.5723083889404248
 40
0.758616423787197
 40
0.9207513991597377
 40
1.0
 40
1.0
 40
1.0
 40
1.0
 10
238.5741443991491
 20
197.8788195906824
 30
0.0
 10
238.5085807560834
 20
197.869648562498
 30
0.0
 10
238.2949563860564
 20
197.839766831911
 30
0.0
 10
238.0790393358146
 20
197.765825834939
 30
0.0
 10
237.917888056421
 20
197.5509033921387
 30
0.0
 10
237.8866744084793
 20
197.390681507975
 30
0.0
 10
237.9176513869843
 20
197.31201837392
 30
0.0
 10
237.9278214335272
 20
197.2861924937612
 30
0.0
  0
LINE
  5
EE
330
1F
100
AcDbEntity
  8
0
  6
Continuous
 62
     7
370
    15
100
AcDbLine
 10
238.0853341579
 20
188.5883884302
 30
0.0
 11
236.9668753505
 21
188.5883884302
 31
0.0
  0
LINE
  5
EF
330
1F
100
AcDbEntity
  8
0
  6
Continuous
 62
     7
370
    15
100
AcDbLine
 10
236.9668753505
 20
187.7883888579
 30
0.0
 11
238.7255774498
 21
187.7883888579
 31
0.0
  0
LINE
  5
F0
330
1F
100
AcDbEntity
  8
0
  6
Continuous
 62
     7
370
    15
100
AcDbLine
 10
235.5565847516
 20
201.3861291839
 30
0.0
 11
235.5565847516
 21
201.4395992069
 31
0.0
  0
LINE
  5
F1
330
1F
100
AcDbEntity
  8
0
  6
Continuous
 62
     7
370
    15
100
AcDbLine
 10
232.5565861225
 20
201.4395992069
 30
0.0
 11
232.5565861225
 21
201.3861291839
 31
0.0
  0
SPLINE
  5
F2
330
1F
100
AcDbEntity
  8
0
  6
Continuous
 62
     7
370
    15
100
AcDbSpline
210
0.0
220
0.0
230
1.0
 70
     8
 71
     3
 72
    15
 73
    11
 74
     0
 42
0.00000001
 43
0.00000001
 40
0.0
 40
0.0
 40
0.0
 40
0.0
 40
0.1077551036863209
 40
0.235250774724543
 40
0.3627908901706017
 40
0.4902566411288575
 40
0.6176624605260265
 40
0.7450971317547226
 40
0.8724965622541917
 40
1.0
 40
1.0
 40
1.0
 40
1.0
 10
232.5726421236822
 20
185.3861284239835
 30
0.0
 10
232.5891820565887
 20
185.0736076607742
 30
0.0
 10
232.6252920123777
 20
184.3913128167499
 30
0.0
 10
232.9614921943167
 20
183.3821590827766
 30
0.0
 10
233.5195792016487
 20
182.418680729472
 30
0.0
 10
234.2744095235136
 20
181.5977617919171
 30
0.0
 10
235.1895650041907
 20
180.9624832555878
 30
0.0
 10
236.2168237193467
 20
180.5423273397584
 30
0.0
 10
237.3128053400708
 20
180.328518975155
 30
0.0
 10
238.0485646580383
 20
180.3940495880161
 30
0.0
 10
238.4165944218466
 20
180.4268282635755
 30
0.0
  0
SPLINE
  5
F3
330
1F
100
AcDbEntity
  8
0
  6
Continuous
 62
     7
370
    15
100
AcDbSpline
210
0.0
220
0.0
230
1.0
 70
     8
 71
     3
 72
    15
 73
    11
 74
     0
 42
0.00000001
 43
0.00000001
 40
0.0
 40
0.0
 40
0.0
 40
0.0
 40
0.1316515586047396
 40
0.2633127136958283
 40
0.3951895423885307
 40
0.526669131905233
 40
0.6575467008163791
 40
0.7882127138924467
 40
0.9184595642371461
 40
1.0
 40
1.0
 40
1.0
 40
1.0
 10
237.9189030885527
 20
183.3845131828136
 30
0.0
 10
237.7667191094185
 20
183.3726988502585
 30
0.0
 10
237.4623400579927
 20
183.3490693239653
 30
0.0
 10
237.0114822111706
 20
183.4505492668548
 30
0.0
 10
236.5924520165423
 20
183.6373999359693
 30
0.0
 10
236.2220589404888
 20
183.909996963356
 30
0.0
 10
235.919797559986
 20
184.2559073369109
 30
0.0
 10
235.7006402450375
 20
184.6576156305906
 30
0.0
 10
235.5832673313337
 20
185.0439279455998
 30
0.0
 10
235.5730933338058
 20
185.2910021401541
 30
0.0
 10
235.5691762327978
 20
185.3861284239835
 30
0.0
  0
SPLINE
  5
F4
330
1F
100
AcDbEntity
  8
0
  6
Continuous
 62
     7
370
    15
100
AcDbSpline
210
0.0
220
0.0
230
1.0
 70
     8
 71
     3
 72
    15
 73
    11
 74
     0
 42
0.00000001
 43
0.00000001
 40
0.0
 40
0.0
 40
0.0
 40
0.0
 40
0.1249271199019881
 40
0.2499164786626197
 40
0.3749670180552142
 40
0.4999570436912684
 40
0.624920505096255
 40
0.7499166867458813
 40
0.8748739282905801
 40
1.0
 40
1.0
 40
1.0
 40
1.0
 10
238.5874660372564
 20
206.31664961415
 30
0.0
 10
238.2210893778516
 20
206.3599814707203
 30
0.0
 10
237.4881535296988
 20
206.44666677185
 30
0.0
 10
236.3841274521122
 20
206.2814770302034
 30
0.0
 10
235.3433281599881
 20
205.8925462306591
 30
0.0
 10
234.4081391831713
 20
205.2875317342233
 30
0.0
 10
233.6274956744369
 20
204.49133788728
 30
0.0
 10
233.0395333473799
 20
203.5469746218595
 30
0.0
 10
232.6436970170926
 20
202.4985320757897
 30
0.0
 10
232.5856361529077
 20
201.7594098792346
 30
0.0
 10
232.5565861224958
 20
201.3895992918557
 30
0.0
  0
SPLINE
  5
F5
330
1F
100
AcDbEntity
  8
0
  6
Continuous
 62
     7
370
    15
100
AcDbSpline
210
0.0
220
0.0
230
1.0
 70
     8
 71
     3
 72
    15
 73
    11
 74
     0
 42
0.00000001
 43
0.00000001
 40
0.0
 40
0.0
 40
0.0
 40
0.0
 40
0.1242530462176843
 40
0.2486332419100647
 40
0.3735411395592486
 40
0.4985830848606487
 40
0.623663589876646
 40
0.7490697403789933
 40
0.8744383161927857
 40
1.0
 40
1.0
 40
1.0
 40
1.0
 10
235.556584751589
 20
201.3895992918557
 30
0.0
 10
235.5701453749219
 20
201.54155543509
 30
0.0
 10
235.5972804983188
 20
201.8456232199096
 30
0.0
 10
235.7717361038024
 20
202.2729395172676
 30
0.0
 10
236.0250701589427
 20
202.6545815412678
 30
0.0
 10
236.3548933367562
 20
202.9745106753503
 30
0.0
 10
236.7458196341492
 20
203.215086848489
 30
0.0
 10
237.1785176711895
 20
203.366710619561
 30
0.0
 10
237.6360495307094
 20
203.420168100335
 30
0.0
 10
237.9379687591153
 20
203.3794780925689
 30
0.0
 10
238.089044547064
 20
203.3591174318141
 30
0.0
  0
LINE
  5
F6
330
1F
100
AcDbEntity
  8
0
  6
Continuous
 62
     7
370
    15
100
AcDbLine
 10
253.4596519232
 20
186.0012655875
 30
0.0
 11
237.9186795711
 21
183.3848475276
 31
0.0
  0
LINE
  5
F7
330
1F
100
AcDbEntity
  8
0
  6
Continuous
 62
     7
370
    15
100
AcDbLine
 10
238.4167359829
 20
180.4264799489
 30
0.0
 11
253.9577083349
 21
183.0428984745
 31
0.0
  0
LINE
  5
F8
330
1F
100
AcDbEntity
  8
0
  6
Continuous
 62
     7
370
    15
100
AcDbLine
 10
238.0892606139
 20
203.3586918174
 30
0.0
 11
253.6302255153
 21
200.7422728262
 31
0.0
  0
LINE
  5
F9
330
1F
100
AcDbEntity
  8
0
  6
Continuous
 62
     7
370
    15
100
AcDbLine
 10
254.1282968283
 20
203.7006399392
 30
0.0
 11
238.5873244762
 21
206.3170584648
 31
0.0
  0
SPLINE
  5
FA
330
1F
100
AcDbEntity
  8
0
  6
Continuous
 62
     7
370
    15
100
AcDbSpline
210
0.0
220
0.0
230
1.0
 70
     8
 71
     3
 72
    12
 73
     8
 74
     0
 42
0.00000001
 43
0.00000001
 40
0.0
 40
0.0
 40
0.0
 40
0.0
 40
0.152613930552983
 40
0.2973908389818963
 40
0.5623711722461424
 40
0.7966022734797539
 40
1.0
 40
1.0
 40
1.0
 40
1.0
 10
253.9573656081984
 20
183.0432076736039
 30
0.0
 10
254.2085852293666
 20
183.0959457488403
 30
0.0
 10
254.6981238556061
 20
183.1987136965892
 30
0.0
 10
255.5476456802796
 20
183.6279591637653
 30
0.0
 10
256.3596408642722
 20
184.3723491989426
 30
0.0
 10
256.924065655103
 20
185.4433968751702
 30
0.0
 10
257.0057563503351
 20
186.1783208138739
 30
0.0
 10
257.0437239169905
 20
186.5198930523044
 30
0.0
  0
SPLINE
  5
FB
330
1F
100
AcDbEntity
  8
0
  6
Continuous
 62
     7
370
    15
100
AcDbSpline
210
0.0
220
0.0
230
1.0
 70
     8
 71
     3
 72
    11
 73
     7
 74
     0
 42
0.00000001
 43
0.00000001
 40
0.0
 40
0.0
 40
0.0
 40
0.0
 40
0.2003557084226641
 40
0.4328019081171545
 40
0.6990219638969846
 40
1.0
 40
1.0
 40
1.0
 40
1.0
 10
254.0454165696928
 20
186.5198930523044
 30
0.0
 10
254.0321890707008
 20
186.4634665783327
 30
0.0
 10
254.0036154560609
 20
186.3415759379535
 30
0.0
 10
253.8877302699718
 20
186.1758730779718
 30
0.0
 10
253.7029709806517
 20
186.0369679003837
 30
0.0
 10
253.5453488840422
 20
186.0135786215808
 30
0.0
 10
253.4617082834075
 20
186.0011673330015
 30
0.0
  0
SPLINE
  5
FC
330
1F
100
AcDbEntity
  8
0
  6
Continuous
 62
     7
370
    15
100
AcDbSpline
210
0.0
220
0.0
230
1.0
 70
     8
 71
     3
 72
    12
 73
     8
 74
     0
 42
0.00000001
 43
0.00000001
 40
0.0
 40
0.0
 40
0.0
 40
0.0
 40
0.203406314462845
 40
0.4376409325717662
 40
0.7026159820239064
 40
0.8473900631967533
 40
0.9999999999999999
 40
0.9999999999999999
 40
0.9999999999999999
 40
0.9999999999999999
 10
257.0437239169905
 20
200.0785238838441
 30
0.0
 10
257.0222897659543
 20
200.4215330892432
 30
0.0
 10
256.9761728994591
 20
201.159538047093
 30
0.0
 10
256.4640529842467
 20
202.2566423072102
 30
0.0
 10
255.6888500097262
 20
203.0394014731014
 30
0.0
 10
254.8609992081727
 20
203.5091292074191
 30
0.0
 10
254.3770103590722
 20
203.6353904530082
 30
0.0
 10
254.1286395549604
 20
203.7001845224447
 30
0.0
  0
SPLINE
  5
FD
330
1F
100
AcDbEntity
  8
0
  6
Continuous
 62
     7
370
    15
100
AcDbSpline
210
0.0
220
0.0
230
1.0
 70
     8
 71
     3
 72
    12
 73
     8
 74
     0
 42
0.00000001
 43
0.00000001
 40
0.0
 40
0.0
 40
0.0
 40
0.0
 40
0.1555467668030945
 40
0.3021964619754383
 40
0.5679612517421782
 40
0.799944018567254
 40
1.0
 40
1.0
 40
1.0
 40
1.0
 10
253.6283181667158
 20
200.7431911102182
 30
0.0
 10
253.6688597810565
 20
200.7274412328918
 30
0.0
 10
253.7476240824196
 20
200.6968423506237
 30
0.0
 10
253.8772529291431
 20
200.6018000464214
 30
0.0
 10
253.991681404372
 20
200.4556255812103
 30
0.0
 10
254.0558384182301
 20
200.2613749275028
 30
0.0
 10
254.0487150517708
 20
200.1363956604574
 30
0.0
 10
254.0454165696928
 20
200.0785238838441
 30
0.0
  0
LINE
  5
FE
330
1F
100
AcDbEntity
  8
0
  6
Continuous
 62
     7
370
    15
100
AcDbLine
 10
254.0445672035
 20
200.1285237989
 30
0.0
 11
254.0445672035
 21
199.8861289381
 31
0.0
  0
LINE
  5
FF
330
1F
100
AcDbEntity
  8
0
  6
Continuous
 62
     7
370
    15
100
AcDbLine
 10
254.0445672035
 20
186.8861286699
 30
0.0
 11
254.0445672035
 21
186.4698931372
 31
0.0
  0
LINE
  5
100
330
1F
100
AcDbEntity
  8
0
  6
Continuous
 62
     7
370
    15
100
AcDbLine
 10
257.0445732832
 20
186.4698931372
 30
0.0
 11
257.0445732832
 21
186.8888732775
 31
0.0
  0
LINE
  5
101
330
1F
100
AcDbEntity
  8
0
  6
Continuous
 62
     7
370
    15
100
AcDbLine
 10
257.0445732832
 20
199.8833843304
 30
0.0
 11
257.0445732832
 21
200.1285237989
 31
0.0
  0
LINE
  5
102
330
1F
100
AcDbEntity
  8
0
  6
Continuous
 62
     7
370
    15
100
AcDbLine
 10
243.3438496351
 20
198.9861286043
 30
0.0
 11
241.7255760789
 21
198.9861286043
 31
0.0
  0
LINE
  5
103
330
1F
100
AcDbEntity
  8
0
  6
Continuous
 62
     7
370
    15
100
AcDbLine
 10
242.3524977326
 20
198.186129032
 30
0.0
 11
243.3438496351
 21
198.186129032
 31
0.0
  0
LINE
  5
104
330
1F
100
AcDbEntity
  8
0
  6
Continuous
 62
     7
370
    15
100
AcDbLine
 10
243.6820761919
 20
200.2542677133
 30
0.0
 11
243.4155540228
 21
199.0460205621
 31
0.0
  0
LINE
  5
105
330
1F
100
AcDbEntity
  8
0
  6
Continuous
 62
     7
370
    15
100
AcDbLine
 10
244.1837088823
 20
198.814470487
 30
0.0
 11
244.4632919192
 21
200.081939975
 31
0.0
  0
SPLINE
  5
106
330
1F
100
AcDbEntity
  8
0
  6
Continuous
 62
     7
370
    15
100
AcDbSpline
210
0.0
220
0.0
230
1.0
 70
     8
 71
     3
 72
    11
 73
     7
 74
     0
 42
0.00000001
 43
0.00000001
 40
0.0
 40
0.0
 40
0.0
 40
0.0
 40
0.2541309399275824
 40
0.5022690019548702
 40
0.7495126202113759
 40
1.0
 40
1.0
 40
1.0
 40
1.0
 10
243.3438496351072
 20
198.1861290319509
 30
0.0
 10
243.4439383795423
 20
198.1963751434291
 30
0.0
 10
243.6417555905778
 20
198.2166257441137
 30
0.0
 10
243.8999009167759
 20
198.3706582318836
 30
0.0
 10
244.1033499026115
 20
198.5897323645807
 30
0.0
 10
244.1650883839609
 20
198.7767821484408
 30
0.0
 10
244.1961588024923
 20
198.870916551227
 30
0.0
  0
LINE
  5
107
330
1F
100
AcDbEntity
  8
0
  6
Continuous
 62
     7
370
    15
100
AcDbLine
 10
242.9555775285
 20
200.5861286803
 30
0.0
 11
242.9555775285
 21
201.3861291839
 31
0.0
  0
LINE
  5
108
330
1F
100
AcDbEntity
  8
0
  6
Continuous
 62
     7
370
    15
100
AcDbLine
 10
242.9555775285
 20
185.386128424
 30
0.0
 11
242.9555775285
 21
186.1861289276
 31
0.0
  0
LINE
  5
109
330
1F
100
AcDbEntity
  8
0
  6
Continuous
 62
     7
370
    15
100
AcDbLine
 10
238.0255805015
 20
201.6861286743
 30
0.0
 11
238.0255805015
 21
201.3861291839
 31
0.0
  0
LINE
  5
10A
330
1F
100
AcDbEntity
  8
0
  6
Continuous
 62
     7
370
    15
100
AcDbLine
 10
242.4255804777
 20
201.3861291839
 30
0.0
 11
242.4255804777
 21
201.6861286743
 31
0.0
  0
ARC
  5
10B
330
1F
100
AcDbEntity
  8
0
  6
Continuous
 62
     7
370
    15
100
AcDbCircle
 10
240.225576787
 20
198.5789859469
 30
0.0
 40
3.807142857143189
100
AcDbArc
 50
54.6997515601
 51
125.3002484399
  0
LINE
  5
10C
330
1F
100
AcDbEntity
  8
0
  6
Continuous
 62
     7
370
    15
100
AcDbLine
 10
238.1255747437
 20
184.9861291035
 30
0.0
 11
238.1255747437
 21
184.5861288516
 31
0.0
  0
LINE
  5
10D
330
1F
100
AcDbEntity
  8
0
  6
Continuous
 62
     7
370
    15
100
AcDbLine
 10
242.3255787849
 20
184.5861288516
 30
0.0
 11
242.3255787849
 21
184.9861291035
 31
0.0
  0
ARC
  5
10E
330
1F
100
AcDbEntity
  8
0
  6
Continuous
 62
     7
370
    15
100
AcDbCircle
 10
238.325576787
 20
185.386128804
 30
0.0
 40
0.4000000000008015
100
AcDbArc
 50
270.0
 51
0.0
  0
ARC
  5
10F
330
1F
100
AcDbEntity
  8
0
  6
Continuous
 62
     7
370
    15
100
AcDbCircle
 10
242.125576787
 20
185.386128804
 30
0.0
 40
0.4000000000007731
100
AcDbArc
 50
180.0
 51
270.0
  0
LINE
  5
110
330
1F
100
AcDbEntity
  8
0
  6
Continuous
 62
     7
370
    15
100
AcDbLine
 10
238.7255774498
 20
200.5861286803
 30
0.0
 11
238.7255774498
 21
200.1361289791
 31
0.0
  0
LINE
  5
111
330
1F
100
AcDbEntity
  8
0
  6
Continuous
 62
     7
370
    15
100
AcDbLine
 10
238.7255774498
 20
199.1361288151
 30
0.0
 11
238.7255774498
 21
198.647424279
 31
0.0
  0
LINE
  5
112
330
1F
100
AcDbEntity
  8
0
  6
Continuous
 62
     7
370
    15
100
AcDbLine
 10
238.7255774498
 20
197.8513097188
 30
0.0
 11
238.7255774498
 21
197.6956126078
 31
0.0
  0
LINE
  5
113
330
1F
100
AcDbEntity
  8
0
  6
Continuous
 62
     7
370
    15
100
AcDbLine
 10
238.7255774498
 20
188.3965019866
 30
0.0
 11
238.7255774498
 21
187.6361287928
 31
0.0
  0
LINE
  5
114
330
1F
100
AcDbEntity
  8
0
  6
Continuous
 62
     7
370
    15
100
AcDbLine
 10
238.7255774498
 20
186.6361286289
 30
0.0
 11
238.7255774498
 21
186.1861289276
 31
0.0
  0
LINE
  5
115
330
1F
100
AcDbEntity
  8
0
  6
Continuous
 62
     7
370
    15
100
AcDbLine
 10
241.7255760789
 20
186.1861289276
 30
0.0
 11
241.7255760789
 21
186.6361286289
 31
0.0
  0
LINE
  5
116
330
1F
100
AcDbEntity
  8
0
  6
Continuous
 62
     7
370
    15
100
AcDbLine
 10
241.7255760789
 20
187.6361287928
 30
0.0
 11
241.7255760789
 21
188.1232710353
 31
0.0
  0
LINE
  5
117
330
1F
100
AcDbEntity
  8
0
  6
Continuous
 62
     7
370
    15
100
AcDbLine
 10
241.7255760789
 20
197.4311882428
 30
0.0
 11
241.7255760789
 21
197.61912681
 31
0.0
  0
LINE
  5
118
330
1F
100
AcDbEntity
  8
0
  6
Continuous
 62
     7
370
    15
100
AcDbLine
 10
241.7255760789
 20
198.3742059006
 30
0.0
 11
241.7255760789
 21
199.1361288151
 31
0.0
  0
LINE
  5
119
330
1F
100
AcDbEntity
  8
0
  6
Continuous
 62
     7
370
    15
100
AcDbLine
 10
241.7255760789
 20
200.1361289791
 30
0.0
 11
241.7255760789
 21
200.5861286803
 31
0.0
  0
LINE
  5
11A
330
1F
100
AcDbEntity
  8
0
  6
Continuous
 62
     7
370
    15
100
AcDbLine
 10
253.3241854667
 20
199.8861289381
 30
0.0
 11
253.3241854667
 21
186.8861286699
 31
0.0
  0
LINE
  5
11B
330
1F
100
AcDbEntity
  8
0
  6
Continuous
 62
     7
370
    15
100
AcDbLine
 10
253.3241854667
 20
199.8861289381
 30
0.0
 11
256.0431705475
 21
199.8861289381
 31
0.0
  0
LWPOLYLINE
  5
11C
330
1F
100
AcDbEntity
  8
0
  6
Continuous
 62
     7
370
    15
100
AcDbPolyline
 90
        9
 70
   128
 43
0.0
 10
256.7736850738
 20
198.6861286482
 10
256.75964818
 20
198.9202370665
 10
256.7180739403
 20
199.1453489086
 10
256.6505716801
 20
199.3528131193
 10
256.5597193003
 20
199.5346571116
 10
256.4490185737
 20
199.683892241
 10
256.3227163315
 20
199.7947843543
 10
256.1856852531
 20
199.8630712538
 10
256.0431705475
 20
199.8861289381
  0
LINE
  5
11D
330
1F
100
AcDbEntity
  8
0
  6
Continuous
 62
     7
370
    15
100
AcDbLine
 10
256.7736850738
 20
198.6861286482
 30
0.0
 11
256.7736850738
 21
188.0861289597
 31
0.0
  0
LWPOLYLINE
  5
11E
330
1F
100
AcDbEntity
  8
0
  6
Continuous
 62
     7
370
    15
100
AcDbPolyline
 90
        9
 70
   128
 43
0.0
 10
256.0431705475
 20
186.8861286699
 10
256.1856852531
 20
186.9091863542
 10
256.3227163315
 20
186.9774732536
 10
256.4490185737
 20
187.0883653669
 10
256.5597193003
 20
187.2376004963
 10
256.6505716801
 20
187.4194444886
 10
256.7180739403
 20
187.6269086993
 10
256.75964818
 20
187.8520205415
 10
256.7736850738
 20
188.0861289597
  0
LINE
  5
11F
330
1F
100
AcDbEntity
  8
0
  6
Continuous
 62
     7
370
    15
100
AcDbLine
 10
256.0431705475
 20
186.8861286699
 30
0.0
 11
253.3241854667
 21
186.8861286699
 31
0.0
  0
LINE
  5
120
330
1F
100
AcDbEntity
  8
0
  6
Continuous
 62
     7
370
    15
100
AcDbLine
 10
257.7257053613
 20
198.6861286482
 30
0.0
 11
256.7736850738
 21
198.6861286482
 31
0.0
  0
LINE
  5
121
330
1F
100
AcDbEntity
  8
0
  6
Continuous
 62
     7
370
    15
100
AcDbLine
 10
257.7257053613
 20
198.6861286482
 30
0.0
 11
257.7257053613
 21
188.0861289597
 31
0.0
  0
LINE
  5
122
330
1F
100
AcDbEntity
  8
0
  6
Continuous
 62
     7
370
    15
100
AcDbLine
 10
256.7736850738
 20
188.0861289597
 30
0.0
 11
257.7257053613
 21
188.0861289597
 31
0.0
  0
LINE
  5
123
330
1F
100
AcDbEntity
  8
0
  6
Continuous
 62
     7
370
    15
100
AcDbLine
 10
256.995190835
 20
186.8861286699
 30
0.0
 11
256.0431705475
 21
186.8861286699
 31
0.0
  0
LWPOLYLINE
  5
124
330
1F
100
AcDbEntity
  8
0
  6
Continuous
 62
     7
370
    15
100
AcDbPolyline
 90
        9
 70
   128
 43
0.0
 10
257.7257053613
 20
188.0861289597
 10
257.7116684675
 20
187.8520205415
 10
257.6700942278
 20
187.6269086993
 10
257.6025919676
 20
187.4194444886
 10
257.5117395878
 20
187.2376004963
 10
257.4010388613
 20
187.0883653669
 10
257.2747515201
 20
186.9774732536
 10
257.1377055406
 20
186.9091863542
 10
256.995190835
 20
186.8861286699
  0
LINE
  5
125
330
1F
100
AcDbEntity
  8
0
  6
Continuous
 62
     7
370
    15
100
AcDbLine
 10
256.0431705475
 20
199.8861289381
 30
0.0
 11
256.995190835
 21
199.8861289381
 31
0.0
  0
LWPOLYLINE
  5
126
330
1F
100
AcDbEntity
  8
0
  6
Continuous
 62
     7
370
    15
100
AcDbPolyline
 90
        9
 70
   128
 43
0.0
 10
256.995190835
 20
199.8861289381
 10
257.1377055406
 20
199.8630712538
 10
257.2747515201
 20
199.7947843543
 10
257.4010388613
 20
199.683892241
 10
257.5117395878
 20
199.5346571116
 10
257.6025919676
 20
199.3528131193
 10
257.6700942278
 20
199.1453489086
 10
257.7116684675
 20
198.9202370665
 10
257.7257053613
 20
198.6861286482
  0
LINE
  5
127
330
1F
100
AcDbEntity
  8
0
  6
Continuous
 62
     7
370
    15
100
AcDbLine
 10
252.7455733776
 20
199.8861289381
 30
0.0
 11
253.3241854667
 21
199.8861289381
 31
0.0
  0
LINE
  5
128
330
1F
100
AcDbEntity
  8
0
  6
Continuous
 62
     7
370
    15
100
AcDbLine
 10
253.3241854667
 20
186.8861286699
 30
0.0
 11
252.7455733776
 21
186.8861286699
 31
0.0
  0
LINE
  5
129
330
1F
100
AcDbEntity
  8
0
  6
Continuous
 62
     7
370
    15
100
AcDbLine
 10
262.8455804348
 20
198.786128944
 30
0.0
 11
261.3455699444
 21
198.786128944
 31
0.0
  0
LINE
  5
12A
330
1F
100
AcDbEntity
  8
0
  6
Continuous
 62
     7
370
    15
100
AcDbLine
 10
261.3455699444
 20
197.986128906
 30
0.0
 11
262.8455804348
 21
197.986128906
 31
0.0
  0
LINE
  5
12B
330
1F
100
AcDbEntity
  8
0
  6
Continuous
 62
     7
370
    15
100
AcDbLine
 10
262.8455804348
 20
197.986128906
 30
0.0
 11
262.8455804348
 21
196.486128893
 31
0.0
  0
LINE
  5
12C
330
1F
100
AcDbEntity
  8
0
  6
Continuous
 62
     7
370
    15
100
AcDbLine
 10
262.8455804348
 20
196.486128893
 30
0.0
 11
263.6455790758
 21
196.486128893
 31
0.0
  0
LINE
  5
12D
330
1F
100
AcDbEntity
  8
0
  6
Continuous
 62
     7
370
    15
100
AcDbLine
 10
263.6455790758
 20
196.486128893
 30
0.0
 11
263.6455790758
 21
197.986128906
 31
0.0
  0
LINE
  5
12E
330
1F
100
AcDbEntity
  8
0
  6
Continuous
 62
     7
370
    15
100
AcDbLine
 10
265.1455746651
 20
197.986128906
 30
0.0
 11
265.1455746651
 21
198.786128944
 31
0.0
  0
LINE
  5
12F
330
1F
100
AcDbEntity
  8
0
  6
Continuous
 62
     7
370
    15
100
AcDbLine
 10
265.1455746651
 20
198.786128944
 30
0.0
 11
263.6455790758
 21
198.786128944
 31
0.0
  0
LINE
  5
130
330
1F
100
AcDbEntity
  8
0
  6
Continuous
 62
     7
370
    15
100
AcDbLine
 10
263.6455790758
 20
198.786128944
 30
0.0
 11
263.6455790758
 21
200.2861287242
 31
0.0
  0
LINE
  5
131
330
1F
100
AcDbEntity
  8
0
  6
Continuous
 62
     7
370
    15
100
AcDbLine
 10
263.6455790758
 20
200.2861287242
 30
0.0
 11
262.8455804348
 21
200.2861287242
 31
0.0
  0
LINE
  5
132
330
1F
100
AcDbEntity
  8
0
  6
Continuous
 62
     7
370
    15
100
AcDbLine
 10
262.8455804348
 20
200.2861287242
 30
0.0
 11
262.8455804348
 21
198.786128944
 31
0.0
  0
LINE
  5
133
330
1F
100
AcDbEntity
  8
0
  6
Continuous
 62
     7
370
    15
100
AcDbLine
 10
261.3455699444
 20
198.786128944
 30
0.0
 11
261.3455699444
 21
197.986128906
 31
0.0
  0
LINE
  5
134
330
1F
100
AcDbEntity
  8
0
  6
Continuous
 62
     7
370
    15
100
AcDbLine
 10
263.6455790758
 20
197.986128906
 30
0.0
 11
265.1455746651
 21
197.986128906
 31
0.0
  0
CIRCLE
  5
135
330
1F
100
AcDbEntity
  8
0
  6
Continuous
 62
     7
370
    15
100
AcDbCircle
 10
263.245576787
 20
198.386128804
 30
0.0
 40
3.0
  0
LINE
  5
136
330
1F
100
AcDbEntity
  8
0
  6
Continuous
 62
     7
370
    15
100
AcDbLine
 10
262.8455804348
 20
186.4861288837
 30
0.0
 11
263.6455790758
 21
186.4861288837
 31
0.0
  0
LINE
  5
137
330
1F
100
AcDbEntity
  8
0
  6
Continuous
 62
     7
370
    15
100
AcDbLine
 10
263.6455790758
 20
186.4861288837
 30
0.0
 11
263.6455790758
 21
187.9861286639
 31
0.0
  0
LINE
  5
138
330
1F
100
AcDbEntity
  8
0
  6
Continuous
 62
     7
370
    15
100
AcDbLine
 10
263.6455790758
 20
188.7861287019
 30
0.0
 11
263.6455790758
 21
190.2861287149
 31
0.0
  0
LINE
  5
139
330
1F
100
AcDbEntity
  8
0
  6
Continuous
 62
     7
370
    15
100
AcDbLine
 10
263.6455790758
 20
190.2861287149
 30
0.0
 11
262.8455804348
 21
190.2861287149
 31
0.0
  0
LINE
  5
13A
330
1F
100
AcDbEntity
  8
0
  6
Continuous
 62
     7
370
    15
100
AcDbLine
 10
262.8455804348
 20
190.2861287149
 30
0.0
 11
262.8455804348
 21
188.7861287019
 31
0.0
  0
LINE
  5
13B
330
1F
100
AcDbEntity
  8
0
  6
Continuous
 62
     7
370
    15
100
AcDbLine
 10
262.8455804348
 20
187.9861286639
 30
0.0
 11
262.8455804348
 21
186.4861288837
 31
0.0
  0
CIRCLE
  5
13C
330
1F
100
AcDbEntity
  8
0
  6
Continuous
 62
     7
370
    15
100
AcDbCircle
 10
263.245576787
 20
188.386128804
 30
0.0
 40
3.0
  0
LINE
  5
13D
330
1F
100
AcDbEntity
  8
0
  6
Continuous
 62
     7
370
    15
100
AcDbLine
 10
265.1455746651
 20
188.7861287019
 30
0.0
 11
263.6455790758
 21
188.7861287019
 31
0.0
  0
LINE
  5
13E
330
1F
100
AcDbEntity
  8
0
  6
Continuous
 62
     7
370
    15
100
AcDbLine
 10
261.3455699444
 20
187.9861286639
 30
0.0
 11
262.8455804348
 21
187.9861286639
 31
0.0
  0
LINE
  5
13F
330
1F
100
AcDbEntity
  8
0
  6
Continuous
 62
     7
370
    15
100
AcDbLine
 10
263.6455790758
 20
187.9861286639
 30
0.0
 11
265.1455746651
 21
187.9861286639
 31
0.0
  0
LINE
  5
140
330
1F
100
AcDbEntity
  8
0
  6
Continuous
 62
     7
370
    15
100
AcDbLine
 10
261.3455699444
 20
188.7861287019
 30
0.0
 11
261.3455699444
 21
187.9861286639
 31
0.0
  0
LINE
  5
141
330
1F
100
AcDbEntity
  8
0
  6
Continuous
 62
     7
370
    15
100
AcDbLine
 10
262.8455804348
 20
188.7861287019
 30
0.0
 11
261.3455699444
 21
188.7861287019
 31
0.0
  0
LINE
  5
142
330
1F
100
AcDbEntity
  8
0
  6
Continuous
 62
     7
370
    15
100
AcDbLine
 10
265.1455746651
 20
187.9861286639
 30
0.0
 11
265.1455746651
 21
188.7861287019
 31
0.0
  0
LINE
  5
143
330
1F
100
AcDbEntity
  8
0
  6
Continuous
 62
     7
370
    15
100
AcDbLine
 10
257.2455750465
 20
199.8861289381
 30
0.0
 11
262.227808094
 21
204.4880145027
 31
0.0
  0
ARC
  5
144
330
1F
100
AcDbEntity
  8
0
  6
Continuous
 62
     7
370
    15
100
AcDbCircle
 10
252.745576787
 20
193.386128804
 30
0.0
 40
16.00000000000003
100
AcDbArc
 50
316.3971810272
 51
43.6028189726
  0
ARC
  5
145
330
1F
100
AcDbEntity
  8
0
  6
Continuous
 62
     7
370
    15
100
AcDbCircle
 10
263.245576787
 20
183.3861288039
 30
0.0
 40
1.50000000000001
100
AcDbArc
 50
227.2726046868
 51
316.3971810272
  0
ARC
  5
146
330
1F
100
AcDbEntity
  8
0
  6
Continuous
 62
     7
370
    15
100
AcDbCircle
 10
263.245576787
 20
203.3861288039
 30
0.0
 40
1.500000000000029
100
AcDbArc
 50
43.6028189726
 51
132.7273953127
  0
LINE
  5
147
330
1F
100
AcDbEntity
  8
0
  6
Continuous
 62
     7
370
    15
100
AcDbLine
 10
262.227808094
 20
182.2842431052
 30
0.0
 11
257.2455750465
 21
186.8861286699
 31
0.0
  0
LINE
  5
148
330
1F
100
AcDbEntity
  8
0
  6
Continuous
 62
     7
370
    15
100
AcDbLine
 10
257.0445732832
 20
199.8861289381
 30
0.0
 11
257.2455750465
 21
199.8861289381
 31
0.0
  0
LINE
  5
149
330
1F
100
AcDbEntity
  8
0
  6
Continuous
 62
     7
370
    15
100
AcDbLine
 10
257.2455750465
 20
186.8861286699
 30
0.0
 11
257.0445732832
 21
186.8861286699
 31
0.0
  0
LINE
  5
14A
330
1F
100
AcDbEntity
  8
0
  6
Continuous
 62
     7
370
    15
100
AcDbLine
 10
265.2455763578
 20
58.3861234395
 30
0.0
 11
265.2455763578
 21
43.3861228435
 31
0.0
  0
LINE
  5
14B
330
1F
100
AcDbEntity
  8
0
  6
Continuous
 62
     7
370
    15
100
AcDbLine
 10
265.2455763578
 20
58.3861234395
 30
0.0
 11
280.2455769539
 21
58.3861234395
 31
0.0
  0
ARC
  5
14C
330
1F
100
AcDbEntity
  8
0
  6
Continuous
 62
     7
370
    15
100
AcDbCircle
 10
265.245576787
 20
58.386128804
 30
0.0
 40
15.0
100
AcDbArc
 50
270.0
 51
0.0
  0
LINE
  5
14D
330
1F
100
AcDbEntity
  8
0
  6
Continuous
 62
     7
370
    15
100
AcDbLine
 10
265.2455763578
 20
183.3986366897
 30
0.0
 11
265.2455763578
 21
58.3861234395
 31
0.0
  0
LINE
  5
14E
330
1F
100
AcDbEntity
  8
0
  6
Continuous
 62
     7
370
    15
100
AcDbLine
 10
265.2455763578
 20
203.3736209183
 30
0.0
 11
265.2455763578
 21
328.3861341684
 31
0.0
  0
LINE
  5
14F
330
1F
100
AcDbEntity
  8
0
  6
Continuous
 62
     7
370
    15
100
AcDbLine
 10
265.2455763578
 20
328.3861341684
 30
0.0
 11
280.2455769539
 21
328.3861341684
 31
0.0
  0
LINE
  5
150
330
1F
100
AcDbEntity
  8
0
  6
Continuous
 62
     7
370
    15
100
AcDbLine
 10
280.2455769539
 20
58.3861234395
 30
0.0
 11
280.2455769539
 21
328.3861341684
 31
0.0
  0
LINE
  5
151
330
1F
100
AcDbEntity
  8
0
  6
Continuous
 62
     7
370
    15
100
AcDbLine
 10
260.2455811262
 20
43.3861228435
 30
0.0
 11
265.2455763578
 21
43.3861228435
 31
0.0
  0
LINE
  5
152
330
1F
100
AcDbEntity
  8
0
  6
Continuous
 62
     7
370
    15
100
AcDbLine
 10
260.2455811262
 20
58.3861234395
 30
0.0
 11
265.2455763578
 21
58.3861234395
 31
0.0
  0
LINE
  5
153
330
1F
100
AcDbEntity
  8
0
  6
Continuous
 62
     7
370
    15
100
AcDbLine
 10
260.2455811262
 20
58.3861234395
 30
0.0
 11
260.2455811262
 21
43.3861228435
 31
0.0
  0
LINE
  5
154
330
1F
100
AcDbEntity
  8
0
  6
Continuous
 62
     7
370
    15
100
AcDbLine
 10
260.2455811262
 20
184.1151515751
 30
0.0
 11
260.2455811262
 21
58.3861234395
 31
0.0
  0
LINE
  5
155
330
1F
100
AcDbEntity
  8
0
  6
Continuous
 62
     7
370
    15
100
AcDbLine
 10
260.2455811262
 20
328.3861341684
 30
0.0
 11
265.2455763578
 21
328.3861341684
 31
0.0
  0
LINE
  5
156
330
1F
100
AcDbEntity
  8
0
  6
Continuous
 62
     7
370
    15
100
AcDbLine
 10
260.2455811262
 20
343.3861347644
 30
0.0
 11
265.2455763578
 21
343.3861347644
 31
0.0
  0
LINE
  5
157
330
1F
100
AcDbEntity
  8
0
  6
Continuous
 62
     7
370
    15
100
AcDbLine
 10
265.2455763578
 20
328.3861341684
 30
0.0
 11
265.2455763578
 21
343.3861347644
 31
0.0
  0
LINE
  5
158
330
1F
100
AcDbEntity
  8
0
  6
Continuous
 62
     7
370
    15
100
AcDbLine
 10
260.2455811262
 20
328.3861341684
 30
0.0
 11
260.2455811262
 21
343.3861347644
 31
0.0
  0
LINE
  5
159
330
1F
100
AcDbEntity
  8
0
  6
Continuous
 62
     7
370
    15
100
AcDbLine
 10
260.2455811262
 20
202.6571060328
 30
0.0
 11
260.2455811262
 21
328.3861341684
 31
0.0
  0
ARC
  5
15A
330
1F
100
AcDbEntity
  8
0
  6
Continuous
 62
     7
370
    15
100
AcDbCircle
 10
265.245576787
 20
328.386128804
 30
0.0
 40
14.99999999999994
100
AcDbArc
 50
0.0
 51
90.0
  0
SPLINE
  5
15B
330
1F
100
AcDbEntity
  8
0
  6
Continuous
 62
     7
370
    15
100
AcDbSpline
210
0.0
220
0.0
230
1.0
 70
     8
 71
     3
 72
    16
 73
    12
 74
     0
 42
0.00000001
 43
0.00000001
 40
0.0
 40
0.0
 40
0.0
 40
0.0
 40
0.1207070428064245
 40
0.2414137044325139
 40
0.362118282325166
 40
0.4828243664540374
 40
0.6035303497556166
 40
0.7242372755897817
 40
0.8449422991791885
 40
0.965648579102772
 40
1.0
 40
1.0
 40
1.0
 40
1.0
 10
238.3978785633871
 20
180.4337573035306
 30
0.0
 10
238.4172795546294
 20
180.4364296265986
 30
0.0
 10
238.4560814758477
 20
180.4417742642956
 30
0.0
 10
238.4610037139638
 20
180.7327159807928
 30
0.0
 10
238.4237927703276
 20
181.1860663732025
 30
0.0
 10
238.3468771815706
 20
181.7535863998446
 30
0.0
 10
238.243062627464
 20
182.341914745108
 30
0.0
 10
238.1269551809331
 20
182.8686072769739
 30
0.0
 10
238.0199581948465
 20
183.2318990262434
 30
0.0
 10
237.9473816266995
 20
183.4023637363439
 30
0.0
 10
237.9278312740678
 20
183.369213169113
 30
0.0
 10
237.923500096781
 20
183.3618690057344
 30
0.0
  0
SPLINE
  5
15C
330
1F
100
AcDbEntity
  8
0
  6
Continuous
 62
     7
370
    15
100
AcDbSpline
210
0.0
220
0.0
230
1.0
 70
     8
 71
     3
 72
    16
 73
    12
 74
     0
 42
0.00000001
 43
0.00000001
 40
0.0
 40
0.0
 40
0.0
 40
0.0
 40
0.1205802291477629
 40
0.241162886971151
 40
0.361745602078447
 40
0.4823270431662671
 40
0.6029091299325076
 40
0.7234904747922106
 40
0.8440739268470613
 40
0.9646562545538607
 40
0.9999999999999999
 40
0.9999999999999999
 40
0.9999999999999999
 40
0.9999999999999999
 10
238.5684596061537
 20
206.3097811101622
 30
0.0
 10
238.5878649023693
 20
206.3071082788738
 30
0.0
 10
238.6266758856538
 20
206.3017625624619
 30
0.0
 10
238.6315777368993
 20
206.010818933929
 30
0.0
 10
238.5943881810312
 20
205.5574790313802
 30
0.0
 10
238.5174551653846
 20
204.9899511436777
 30
0.0
 10
238.4136413068304
 20
204.4016189084522
 30
0.0
 10
238.29755081787
 20
203.8749621602276
 30
0.0
 10
238.1905205211054
 20
203.5114903838746
 30
0.0
 10
238.1177702778448
 20
203.3409424619599
 30
0.0
 10
238.0981183967168
 20
203.3745278590126
 30
0.0
 10
238.0936639070341
 20
203.3821406571812
 30
0.0
  0
SPLINE
  5
15D
330
1F
100
AcDbEntity
  8
0
  6
Continuous
 62
     7
370
    15
100
AcDbSpline
210
0.0
220
0.0
230
1.0
 70
     8
 71
     3
 72
    16
 73
    12
 74
     0
 42
0.00000001
 43
0.00000001
 40
0.0
 40
0.0
 40
0.0
 40
0.0
 40
0.1205148478020363
 40
0.2410323587825712
 40
0.36154977106122
 40
0.4820655673932582
 40
0.6025826668731772
 40
0.7230987590871006
 40
0.8436172367068354
 40
0.9641338966220048
 40
1.0
 40
1.0
 40
1.0
 40
1.0
 10
253.9388434648344
 20
183.0501758291072
 30
0.0
 10
253.9582444025548
 20
183.0528485882156
 30
0.0
 10
253.9970467067241
 20
183.058194165496
 30
0.0
 10
254.001969184705
 20
183.3491394076014
 30
0.0
 10
253.9647548082744
 20
183.8024767346179
 30
0.0
 10
253.8878559117709
 20
184.3700065375365
 30
0.0
 10
253.7840185478654
 20
184.9583426266703
 30
0.0
 10
253.6679445466898
 20
185.4849742625563
 30
0.0
 10
253.560871203827
 20
185.8485453491221
 30
0.0
 10
253.4880645643309
 20
186.0191387954961
 30
0.0
 10
253.4683465411762
 20
185.9853239287054
 30
0.0
 10
253.4638242482969
 20
185.9775685502834
 30
0.0
  0
SPLINE
  5
15E
330
1F
100
AcDbEntity
  8
0
  6
Continuous
 62
     7
370
    15
100
AcDbSpline
210
0.0
220
0.0
230
1.0
 70
     8
 71
     3
 72
    16
 73
    12
 74
     0
 42
0.00000001
 43
0.00000001
 40
0.0
 40
0.0
 40
0.0
 40
0.0
 40
0.1205148134883834
 40
0.2410322014039964
 40
0.3615495793682622
 40
0.4820659143048517
 40
0.6025824479676901
 40
0.7230985058676063
 40
0.8436169491726547
 40
0.9641311127312384
 40
0.9999999999999999
 40
0.9999999999999999
 40
0.9999999999999999
 40
0.9999999999999999
 10
254.1094319581816
 20
203.6933625845856
 30
0.0
 10
254.1288330473294
 20
203.6906897284903
 30
0.0
 10
254.1676356400693
 20
203.6853439592025
 30
0.0
 10
254.1725558649879
 20
203.3944003475346
 30
0.0
 10
254.1353500259168
 20
202.9410609038493
 30
0.0
 10
254.0584189140979
 20
202.373535183978
 30
0.0
 10
253.9546145319039
 20
201.7851939245766
 30
0.0
 10
253.8385277538285
 20
201.2585643535407
 30
0.0
 10
253.7314739097436
 20
200.8949958190459
 30
0.0
 10
253.6586195055827
 20
200.7243998442802
 30
0.0
 10
253.6389290533935
 20
200.7582144278953
 30
0.0
 10
253.6344127416441
 20
200.7659703290707
 30
0.0
  0
SPLINE
  5
15F
330
1F
100
AcDbEntity
  8
0
  6
Continuous
 62
     7
370
    15
100
AcDbSpline
210
0.0
220
0.0
230
1.0
 70
    24
 71
     3
 72
    16
 73
    12
 74
     0
 42
0.00000001
 43
0.00000001
 40
0.0
 40
0.0
 40
0.0
 40
0.0
 40
0.0611072658103903
 40
0.1864685567105957
 40
0.3118332828610396
 40
0.437195919861042
 40
0.5625575982301341
 40
0.6879218439160338
 40
0.8132843021357672
 40
0.9386469391357697
 40
1.0
 40
1.0
 40
1.0
 40
1.0
 10
257.0157693385908
 20
186.5198930523044
 30
0.0
 10
257.0215363604918
 20
186.5198930523044
 30
0.0
 10
257.0391344028217
 20
186.5198930523044
 30
0.0
 10
256.8207325511027
 20
186.5198930523044
 30
0.0
 10
256.4079724263077
 20
186.5198930523044
 30
0.0
 10
255.8515124874002
 20
186.5198930523044
 30
0.0
 10
255.2524106844624
 20
186.5198930523044
 30
0.0
 10
254.6936970019507
 20
186.5198930523044
 30
0.0
 10
254.2767624996887
 20
186.5198930523044
 30
0.0
 10
254.0537705088677
 20
186.5198930523044
 30
0.0
 10
254.0685683261063
 20
186.5198930523044
 30
0.0
 10
254.0734307527372
 20
186.5198930523044
 30
0.0
  0
SPLINE
  5
160
330
1F
100
AcDbEntity
  8
0
  6
Continuous
 62
     7
370
    15
100
AcDbSpline
210
0.0
220
0.0
230
1.0
 70
    24
 71
     3
 72
    16
 73
    12
 74
     0
 42
0.00000001
 43
0.00000001
 40
0.0
 40
0.0
 40
0.0
 40
0.0
 40
0.0610097057000779
 40
0.1861708524569159
 40
0.3113354289794829
 40
0.4364979196870177
 40
0.5616594532941334
 40
0.6868235501192362
 40
0.8119858623319317
 40
0.9371483530394665
 40
1.0
 40
1.0
 40
1.0
 40
1.0
 10
257.0157693385908
 20
200.0785238838441
 30
0.0
 10
257.0215363542829
 20
200.0785238838441
 30
0.0
 10
257.0391343776662
 20
200.0785238838441
 30
0.0
 10
256.8207327843174
 20
200.0785238838441
 30
0.0
 10
256.4079715718233
 20
200.0785238838441
 30
0.0
 10
255.8515156720459
 20
200.0785238838441
 30
0.0
 10
255.2523988003369
 20
200.0785238838441
 30
0.0
 10
254.6937413545617
 20
200.0785238838441
 30
0.0
 10
254.2765969762101
 20
200.0785238838441
 30
0.0
 10
254.0531156584381
 20
200.0785238838441
 30
0.0
 10
254.0683186949304
 20
200.0785238838441
 30
0.0
 10
254.0734009504149
 20
200.0785238838441
 30
0.0
  0
SPLINE
  5
161
330
1F
100
AcDbEntity
  8
0
  6
Continuous
 62
     7
370
    15
100
AcDbSpline
210
0.0
220
0.0
230
1.0
 70
     8
 71
     3
 72
    19
 73
    15
 74
     0
 42
0.00000001
 43
0.00000001
 40
0.0
 40
0.0
 40
0.0
 40
0.0
 40
0.0039549776378648
 40
0.1157677199366972
 40
0.2280449053829162
 40
0.3355201711885925
 40
0.4377087198385091
 40
0.5348831260867358
 40
0.628304564211407
 40
0.7302987403351634
 40
0.8413366346615325
 40
0.9641210806095101
 40
0.9937658844715932
 40
1.0
 40
1.0
 40
1.0
 40
1.0
 10
243.3438496351072
 20
198.9861286042876
 30
0.0
 10
243.3442444242322
 20
198.9861229915887
 30
0.0
 10
243.3558004533794
 20
198.9859587000532
 30
0.0
 10
243.3790281258221
 20
198.9708275789683
 30
0.0
 10
243.4225312458488
 20
198.9039329407221
 30
0.0
 10
243.4605054157928
 20
198.7992345152174
 30
0.0
 10
243.484001611555
 20
198.6741588592025
 30
0.0
 10
243.4953264362907
 20
198.5457230359308
 30
0.0
 10
243.4959359313252
 20
198.4245478666772
 30
0.0
 10
243.4801493209955
 20
198.3153234017582
 30
0.0
 10
243.4397747083357
 20
198.2259058051123
 30
0.0
 10
243.3879066332083
 20
198.1908514488653
 30
0.0
 10
243.3532025457985
 20
198.186241913734
 30
0.0
 10
243.3452341737872
 20
198.1861457421708
 30
0.0
 10
243.3438496351073
 20
198.1861290319509
 30
0.0
  0
SPLINE
  5
162
330
1F
100
AcDbEntity
  8
0
  6
Continuous
 62
     7
370
    15
100
AcDbSpline
210
0.0
220
0.0
230
1.0
 70
     8
 71
     3
 72
    30
 73
    26
 74
     0
 42
0.00000001
 43
0.00000001
 40
0.0
 40
0.0
 40
0.0
 40
0.0
 40
0.1247101350178456
 40
0.2494120074117842
 40
0.3741270138621569
 40
0.4367848053677046
 40
0.4681540445569458
 40
0.483841760203463
 40
0.4916884763780781
 40
0.4956128155993287
 40
0.4975718017968226
 40
0.4985512768059792
 40
0.4990412458894969
 40
0.4992860713214644
 40
0.4994085274245891
 40
0.4994755181334227
 40
0.4995061105324881
 40
0.4995185841155532
 40
0.4995368262351859
 40
0.5609177874858622
 40
0.6646245350065487
 40
0.7325819853722026
 40
0.8111453701247551
 40
0.9002973735135731
 40
1.0
 40
1.0
 40
1.0
 40
1.0
 10
243.415554022772
 20
199.0460205620772
 30
0.0
 10
243.4213177811503
 20
199.0442279921827
 30
0.0
 10
243.4328449160311
 20
199.0406429711597
 30
0.0
 10
243.5226958613554
 20
199.0187998780087
 30
0.0
 10
243.6301671295684
 20
198.9931218009716
 30
0.0
 10
243.7157206246068
 20
198.9727104629401
 30
0.0
 10
243.7598228624515
 20
198.9621754495368
 30
0.0
 10
243.78204855627
 20
198.9568565764412
 30
0.0
 10
243.7931820379205
 20
198.954190901372
 30
0.0
 10
243.7987523579187
 20
198.9528585087036
 30
0.0
 10
243.8015360625728
 20
198.9521895474596
 30
0.0
 10
243.8029275183252
 20
198.9518573240625
 30
0.0
 10
243.8036221829056
 20
198.9516886129724
 30
0.0
 10
243.8039703495315
 20
198.9516068464933
 30
0.0
 10
243.8041461821206
 20
198.9515629159997
 30
0.0
 10
243.8042358759984
 20
198.9515436337688
 30
0.0
 10
243.8042809763812
 20
198.9515345558458
 30
0.0
 10
243.804305152302
 20
198.9515260344093
 30
0.0
 10
243.8296010396372
 20
198.9471179431173
 30
0.0
 10
243.8963157064002
 20
198.9295459961912
 30
0.0
 10
243.9875717584784
 20
198.9116978761336
 30
0.0
 10
244.0710405766676
 20
198.8940503086564
 30
0.0
 10
244.1346087352159
 20
198.8813021415486
 30
0.0
 10
244.1851079239691
 20
198.8716115769051
 30
0.0
 10
244.1923404905648
 20
198.8711566972779
 30
0.0
 10
244.1961588024923
 20
198.870916551227
 30
0.0
  0
ELLIPSE
  5
163
330
1F
100
AcDbEntity
  8
0
  6
Continuous
 62
     7
370
    15
100
AcDbEllipse
 10
244.0726851807
 20
200.1681039827
 30
0.0
 11
0.3906095144045878
 21
-0.08616383961160068
 31
0.0
210
0.0
220
0.0
230
1.0
 40
0.0142285888
 41
0.0
 42
6.283185307179586
  0
LINE
  5
164
330
1F
100
AcDbEntity
  8
0
  6
Continuous
 62
     7
370
    15
100
AcDbLine
 10
243.4565024137
 20
188.6861288718
 30
0.0
 11
243.4565024137
 21
197.2861286982
 31
0.0
  0
LINE
  5
165
330
1F
100
AcDbEntity
  8
0
  6
Continuous
 62
     7
370
    15
100
AcDbLine
 10
237.9422085047
 20
188.6861288718
 30
0.0
 11
237.9422085047
 21
197.2861286982
 31
0.0
  0
LINE
  5
166
330
1F
100
AcDbEntity
  8
0
  6
Continuous
 62
     7
370
    15
100
AcDbLine
 10
243.4565024137
 20
197.2861286982
 30
0.0
 11
237.9422085047
 21
197.2861286982
 31
0.0
  0
LINE
  5
167
330
1F
100
AcDbEntity
  8
0
  6
Continuous
 62
     7
370
    15
100
AcDbLine
 10
243.4565024137
 20
188.6861288718
 30
0.0
 11
237.9422085047
 21
188.6861288718
 31
0.0
  0
LINE
  5
168
330
1F
100
AcDbEntity
  8
0
  6
Continuous
 62
     7
370
    15
100
AcDbLine
 10
236.8279518246
 20
200.5861286803
 30
0.0
 11
212.0158420563
 21
200.5861286803
 31
0.0
  0
LINE
  5
169
330
1F
100
AcDbEntity
  8
0
  6
Continuous
 62
     7
370
    15
100
AcDbLine
 10
236.8279518246
 20
197.2861286982
 30
0.0
 11
236.8279518246
 21
200.5861286803
 31
0.0
  0
LINE
  5
16A
330
1F
100
AcDbEntity
  8
0
  6
Continuous
 62
     7
370
    15
100
AcDbLine
 10
236.8279518246
 20
186.1861289276
 30
0.0
 11
236.8279518246
 21
188.6861288718
 31
0.0
  0
LINE
  5
16B
330
1F
100
AcDbEntity
  8
0
  6
Continuous
 62
     7
370
    15
100
AcDbLine
 10
212.0158420563
 20
186.1861289276
 30
0.0
 11
236.8279518246
 21
186.1861289276
 31
0.0
  0
LINE
  5
16C
330
1F
100
AcDbEntity
  8
0
  6
Continuous
 62
     7
370
    15
100
AcDbLine
 10
212.0158420563
 20
186.1861289276
 30
0.0
 11
212.0158420563
 21
200.5861286803
 31
0.0
  0
LINE
  5
16D
330
1F
100
AcDbEntity
  8
0
  6
Continuous
 62
     7
370
    15
100
AcDbLine
 10
236.8279518246
 20
197.2861286982
 30
0.0
 11
237.9422085047
 21
197.2861286982
 31
0.0
  0
LINE
  5
16E
330
1F
100
AcDbEntity
  8
0
  6
Continuous
 62
     7
370
    15
100
AcDbLine
 10
236.8279518246
 20
188.6861288718
 30
0.0
 11
237.9422085047
 21
188.6861288718
 31
0.0
  0
LINE
  5
16F
330
1F
100
AcDbEntity
  8
0
  6
Continuous
 62
     7
370
    15
100
AcDbLine
 10
238.8478116751
 20
201.3834795712
 30
0.0
 11
236.9555802703
 21
201.3834795712
 31
0.0
  0
ARC
  5
170
330
1F
100
AcDbEntity
  8
0
  6
Continuous
 62
     7
370
    15
100
AcDbCircle
 10
238.3022035722
 20
200.7590416027
 30
0.0
 40
1.484357468314217
100
AcDbArc
 50
155.1225389752
 51
186.6895781293
  0
ARC
  5
171
330
1F
100
AcDbEntity
  8
0
  6
Continuous
 62
     7
370
    15
100
AcDbCircle
 10
213.2717901741
 20
200.7800904771
 30
0.0
 40
1.270837067952018
100
AcDbArc
 50
151.5180738401
 51
188.7790931251
  0
LINE
  5
172
330
1F
100
AcDbEntity
  8
0
  6
Continuous
 62
     7
370
    15
100
AcDbLine
 10
212.1547655821
 20
201.3861291839
 30
0.0
 11
239.5205618501
 21
201.3861291839
 31
0.0
  0
LINE
  5
173
330
1F
100
AcDbEntity
  8
0
  6
Continuous
 62
     7
370
    15
100
AcDbLine
 10
239.5205618501
 20
201.3861291839
 30
0.0
 11
238.8478116751
 21
201.3834795712
 31
0.0
  0
LINE
  5
174
330
1F
100
AcDbEntity
  8
0
  6
Continuous
 62
     7
370
    15
100
AcDbLine
 10
236.9555802703
 20
185.3887780367
 30
0.0
 11
238.8478116751
 21
185.3887780367
 31
0.0
  0
LINE
  5
175
330
1F
100
AcDbEntity
  8
0
  6
Continuous
 62
     7
370
    15
100
AcDbLine
 10
238.8478116751
 20
185.3887780367
 30
0.0
 11
239.5205618501
 21
185.386128424
 31
0.0
  0
LINE
  5
176
330
1F
100
AcDbEntity
  8
0
  6
Continuous
 62
     7
370
    15
100
AcDbLine
 10
239.5205618501
 20
185.386128424
 30
0.0
 11
212.1547655821
 21
185.386128424
 31
0.0
  0
ARC
  5
177
330
1F
100
AcDbEntity
  8
0
  6
Continuous
 62
     7
370
    15
100
AcDbCircle
 10
213.2717901741
 20
185.9921671308
 30
0.0
 40
1.270837067952032
100
AcDbArc
 50
171.2209068749
 51
208.4819261599
  0
ARC
  5
178
330
1F
100
AcDbEntity
  8
0
  6
Continuous
 62
     7
370
    15
100
AcDbCircle
 10
238.3022035722
 20
186.0132160053
 30
0.0
 40
1.484357468314273
100
AcDbArc
 50
173.3104218707
 51
204.8774610248
  0
LINE
  5
179
330
1F
100
AcDbEntity
  8
0
  6
Continuous
 62
     7
370
    15
100
AcDbLine
 10
236.9555802703
 20
200.5861286803
 30
0.0
 11
236.9555802703
 21
201.3834795712
 31
0.0
  0
LINE
  5
17A
330
1F
100
AcDbEntity
  8
0
  6
Continuous
 62
     7
370
    15
100
AcDbLine
 10
236.9668753505
 20
200.5861286803
 30
0.0
 11
236.9668753505
 21
197.2861286982
 31
0.0
  0
LINE
  5
17B
330
1F
100
AcDbEntity
  8
0
  6
Continuous
 62
     7
370
    15
100
AcDbLine
 10
236.9555802703
 20
185.3887780367
 30
0.0
 11
236.9555802703
 21
186.1861289276
 31
0.0
  0
LINE
  5
17C
330
1F
100
AcDbEntity
  8
0
  6
Continuous
 62
     7
370
    15
100
AcDbLine
 10
236.9668753505
 20
188.6861288718
 30
0.0
 11
236.9668753505
 21
186.1861289276
 31
0.0
  0
LINE
  5
17D
330
1F
100
AcDbEntity
  8
0
  6
Continuous
 62
     7
370
    15
100
AcDbLine
 10
238.8478116751
 20
200.5861286803
 30
0.0
 11
238.8478116751
 21
201.3834795712
 31
0.0
  0
LINE
  5
17E
330
1F
100
AcDbEntity
  8
0
  6
Continuous
 62
     7
370
    15
100
AcDbLine
 10
242.9555775285
 20
201.3861291839
 30
0.0
 11
239.5205618501
 21
201.3861291839
 31
0.0
  0
LINE
  5
17F
330
1F
100
AcDbEntity
  8
0
  6
Continuous
 62
     7
370
    15
100
AcDbLine
 10
242.9555775285
 20
200.5861286803
 30
0.0
 11
238.8478116751
 21
200.5861286803
 31
0.0
  0
LINE
  5
180
330
1F
100
AcDbEntity
  8
0
  6
Continuous
 62
     7
370
    15
100
AcDbLine
 10
242.9555775285
 20
185.386128424
 30
0.0
 11
239.5205618501
 21
185.386128424
 31
0.0
  0
LINE
  5
181
330
1F
100
AcDbEntity
  8
0
  6
Continuous
 62
     7
370
    15
100
AcDbLine
 10
238.8478116751
 20
185.3887780367
 30
0.0
 11
238.8478116751
 21
186.1861289276
 31
0.0
  0
LINE
  5
182
330
1F
100
AcDbEntity
  8
0
  6
Continuous
 62
     7
370
    15
100
AcDbLine
 10
242.9555775285
 20
186.1861289276
 30
0.0
 11
238.8478116751
 21
186.1861289276
 31
0.0
  0
LINE
  5
183
330
1F
100
AcDbEntity
  8
0
  6
Continuous
 62
     7
370
    15
100
AcDbLine
 10
236.9555802703
 20
200.5861286803
 30
0.0
 11
238.8478116751
 21
200.5861286803
 31
0.0
  0
LINE
  5
184
330
1F
100
AcDbEntity
  8
0
  6
Continuous
 62
     7
370
    15
100
AcDbLine
 10
236.9555802703
 20
186.1861289276
 30
0.0
 11
238.8478116751
 21
186.1861289276
 31
0.0
  0
LINE
  5
185
330
1F
100
AcDbEntity
  8
0
  6
Continuous
 62
     7
370
    15
100
AcDbLine
 10
238.0255805015
 20
201.6861286743
 30
0.0
 11
242.4255804777
 21
201.6861286743
 31
0.0
  0
LINE
  5
186
330
1F
100
AcDbEntity
  8
0
  6
Continuous
 62
     7
370
    15
100
AcDbLine
 10
238.1255747437
 20
184.9861291035
 30
0.0
 11
242.3255787849
 21
184.9861291035
 31
0.0
  0
LINE
  5
187
330
1F
100
AcDbEntity
  8
0
  6
Continuous
 62
     7
370
    15
100
AcDbLine
 10
238.1255747437
 20
184.5861288516
 30
0.0
 11
242.3255787849
 21
184.5861288516
 31
0.0
  0
LINE
  5
188
330
1F
100
AcDbEntity
  8
0
  6
Continuous
 62
     7
370
    15
100
AcDbLine
 10
207.1169959068
 20
200.5861286803
 30
0.0
 11
205.1275195241
 21
200.5861286803
 31
0.0
  0
LINE
  5
189
330
1F
100
AcDbEntity
  8
0
  6
Continuous
 62
     7
370
    15
100
AcDbLine
 10
207.1169959068
 20
186.1861289276
 30
0.0
 11
207.1169959068
 21
200.5861286803
 31
0.0
  0
LINE
  5
18A
330
1F
100
AcDbEntity
  8
0
  6
Continuous
 62
     7
370
    15
100
AcDbLine
 10
205.1275195241
 20
186.1861289276
 30
0.0
 11
207.1169959068
 21
186.1861289276
 31
0.0
  0
ARC
  5
18B
330
1F
100
AcDbEntity
  8
0
  6
Continuous
 62
     7
370
    15
100
AcDbCircle
 10
220.421476695
 20
193.386128804
 30
0.0
 40
16.9039972836303
100
AcDbArc
 50
154.7901555355
 51
205.2098444645
  0
SPLINE
  5
18C
330
1F
100
AcDbEntity
  8
0
  6
Continuous
 62
     7
370
    15
100
AcDbSpline
210
0.0
220
0.0
230
1.0
 70
     8
 71
     3
 72
    12
 73
     8
 74
     0
 42
0.00000001
 43
0.00000001
 40
0.0
 40
0.0
 40
0.0
 40
0.0
 40
0.1818726160796446
 40
0.3633444960054099
 40
0.555080703869878
 40
0.7712620712687422
 40
1.0
 40
1.0
 40
1.0
 40
1.0
 10
205.259893989546
 20
185.3861284239835
 30
0.0
 10
205.2837553412655
 20
185.3934500664874
 30
0.0
 10
205.3314254688603
 20
185.4080772190674
 30
0.0
 10
205.3461545883934
 20
185.5200671766637
 30
0.0
 10
205.3189391105447
 20
185.6894591857836
 30
0.0
 10
205.2472555014978
 20
185.9178826288839
 30
0.0
 10
205.1681754518406
 20
186.0950468453856
 30
0.0
 10
205.1275195240805
 20
186.1861289276428
 30
0.0
  0
LINE
  5
18D
330
1F
100
AcDbEntity
  8
0
  6
Continuous
 62
     7
370
    15
100
AcDbLine
 10
204.8755334377
 20
186.1406277663
 30
0.0
 11
205.2299724579
 21
185.386128424
 31
0.0
  0
ARC
  5
18E
330
1F
100
AcDbEntity
  8
0
  6
Continuous
 62
     7
370
    15
100
AcDbCircle
 10
220.1461938562
 20
193.386128804
 30
0.0
 40
16.90237719687148
100
AcDbArc
 50
154.6169692401
 51
205.3830307599
  0
LINE
  5
18F
330
1F
100
AcDbEntity
  8
0
  6
Continuous
 62
     7
370
    15
100
AcDbLine
 10
205.2299724579
 20
201.3861291839
 30
0.0
 11
204.8755334377
 21
200.6316298417
 31
0.0
  0
SPLINE
  5
190
330
1F
100
AcDbEntity
  8
0
  6
Continuous
 62
     7
370
    15
100
AcDbSpline
210
0.0
220
0.0
230
1.0
 70
     8
 71
     3
 72
    12
 73
     8
 74
     0
 42
0.00000001
 43
0.00000001
 40
0.0
 40
0.0
 40
0.0
 40
0.0
 40
0.251021990599481
 40
0.5023977458077202
 40
0.7402765908566765
 40
0.9473178514528033
 40
1.0
 40
1.0
 40
1.0
 40
1.0
 10
205.1275195240805
 20
200.5861286802835
 30
0.0
 10
205.1718371629614
 20
200.6860107980131
 30
0.0
 10
205.2605348974511
 20
200.8859157970692
 30
0.0
 10
205.3355291285619
 20
201.1446508764218
 30
0.0
 10
205.3470182212412
 20
201.3218846969442
 30
0.0
 10
205.3053844299994
 20
201.3823279207797
 30
0.0
 10
205.2675652171617
 20
201.3854881623421
 30
0.0
 10
205.259893989546
 20
201.3861291839427
 30
0.0
  0
LINE
  5
191
330
1F
100
AcDbEntity
  8
0
  6
Continuous
 62
     7
370
    15
100
AcDbLine
 10
205.2598939895
 20
185.386128424
 30
0.0
 11
205.2299724579
 21
185.386128424
 31
0.0
  0
LINE
  5
192
330
1F
100
AcDbEntity
  8
0
  6
Continuous
 62
     7
370
    15
100
AcDbLine
 10
205.2598939895
 20
201.3861291839
 30
0.0
 11
205.2299724579
 21
201.3861291839
 31
0.0
  0
LWPOLYLINE
  5
193
330
1F
100
AcDbEntity
  8
0
  6
Continuous
 62
     7
370
    15
100
AcDbPolyline
 90
        9
 70
   128
 43
0.0
 10
207.1169959068
 20
200.5861286803
 10
207.1117357969
 20
200.7422011143
 10
207.0961640835
 20
200.8922753653
 10
207.0708842635
 20
201.0305851496
 10
207.0368574619
 20
201.1518140121
 10
206.9953949809
 20
201.2513044088
 10
206.9480837941
 20
201.3252327948
 10
206.8967567444
 20
201.3707567735
 10
206.843380785
 20
201.3861291839
  0
LINE
  5
194
330
1F
100
AcDbEntity
  8
0
  6
Continuous
 62
     7
370
    15
100
AcDbLine
 10
205.2598939895
 20
201.3861291839
 30
0.0
 11
206.843380785
 21
201.3861291839
 31
0.0
  0
LWPOLYLINE
  5
195
330
1F
100
AcDbEntity
  8
0
  6
Continuous
 62
     7
370
    15
100
AcDbPolyline
 90
        9
 70
   128
 43
0.0
 10
207.1169959068
 20
186.1861289276
 10
207.1117357969
 20
186.0300564936
 10
207.0961640835
 20
185.8799822426
 10
207.0708842635
 20
185.7416724584
 10
207.0368574619
 20
185.6204435958
 10
206.9953949809
 20
185.5209531991
 10
206.9480837941
 20
185.4470248132
 10
206.8967567444
 20
185.4015008344
 10
206.843380785
 20
185.386128424
  0
LINE
  5
196
330
1F
100
AcDbEntity
  8
0
  6
Continuous
 62
     7
370
    15
100
AcDbLine
 10
206.843380785
 20
185.386128424
 30
0.0
 11
205.2598939895
 21
185.386128424
 31
0.0
  0
LINE
  5
197
330
1F
100
AcDbEntity
  8
0
  6
Continuous
 62
     7
370
    15
100
AcDbLine
 10
207.1169959068
 20
186.1861289276
 30
0.0
 11
212.0158420563
 21
186.1861289276
 31
0.0
  0
LINE
  5
198
330
1F
100
AcDbEntity
  8
0
  6
Continuous
 62
     7
370
    15
100
AcDbLine
 10
212.1547655821
 20
185.386128424
 30
0.0
 11
206.843380785
 21
185.386128424
 31
0.0
  0
LINE
  5
199
330
1F
100
AcDbEntity
  8
0
  6
Continuous
 62
     7
370
    15
100
AcDbLine
 10
212.0158420563
 20
200.5861286803
 30
0.0
 11
207.1169959068
 21
200.5861286803
 31
0.0
  0
LINE
  5
19A
330
1F
100
AcDbEntity
  8
0
  6
Continuous
 62
     7
370
    15
100
AcDbLine
 10
206.843380785
 20
201.3861291839
 30
0.0
 11
212.1547655821
 21
201.3861291839
 31
0.0
  0
LINE
  5
19B
330
1F
100
AcDbEntity
  8
0
  6
Continuous
 62
     7
370
    15
100
AcDbLine
 10
243.245576477
 20
200.1361289791
 30
0.0
 11
243.245576477
 21
199.1361288151
 31
0.0
  0
LINE
  5
19C
330
1F
100
AcDbEntity
  8
0
  6
Continuous
 62
     7
370
    15
100
AcDbLine
 10
243.245576477
 20
199.1361288151
 30
0.0
 11
237.0455758333
 21
199.1361288151
 31
0.0
  0
LINE
  5
19D
330
1F
100
AcDbEntity
  8
0
  6
Continuous
 62
     7
370
    15
100
AcDbLine
 10
237.0455758333
 20
200.1361289791
 30
0.0
 11
237.0455758333
 21
199.1361288151
 31
0.0
  0
LINE
  5
19E
330
1F
100
AcDbEntity
  8
0
  6
Continuous
 62
     7
370
    15
100
AcDbLine
 10
243.245576477
 20
200.1361289791
 30
0.0
 11
237.0455758333
 21
200.1361289791
 31
0.0
  0
LINE
  5
19F
330
1F
100
AcDbEntity
  8
0
  6
Continuous
 62
     7
370
    15
100
AcDbLine
 10
243.245576477
 20
187.6361287928
 30
0.0
 11
243.245576477
 21
186.6361286289
 31
0.0
  0
LINE
  5
1A0
330
1F
100
AcDbEntity
  8
0
  6
Continuous
 62
     7
370
    15
100
AcDbLine
 10
243.245576477
 20
186.6361286289
 30
0.0
 11
237.0455758333
 21
186.6361286289
 31
0.0
  0
LINE
  5
1A1
330
1F
100
AcDbEntity
  8
0
  6
Continuous
 62
     7
370
    15
100
AcDbLine
 10
237.0455758333
 20
187.6361287928
 30
0.0
 11
237.0455758333
 21
186.6361286289
 31
0.0
  0
LINE
  5
1A2
330
1F
100
AcDbEntity
  8
0
  6
Continuous
 62
     7
370
    15
100
AcDbLine
 10
243.245576477
 20
187.6361287928
 30
0.0
 11
237.0455758333
 21
187.6361287928
 31
0.0
  0
LWPOLYLINE
  5
1A3
330
1F
100
AcDbEntity
  8
0
  6
Continuous
 62
     7
370
    15
100
AcDbPolyline
 90
        3
 70
   128
 43
0.0
 10
236.9668753505
 20
187.0249902627
 10
236.9694532513
 20
187.0188123344
 10
237.0455758333
 20
186.6361286289
  0
LWPOLYLINE
  5
1A4
330
1F
100
AcDbEntity
  8
0
  6
Continuous
 62
     7
370
    15
100
AcDbPolyline
 90
        3
 70
   128
 43
0.0
 10
237.0455758333
 20
200.1361289791
 10
236.9694532513
 20
199.7534452735
 10
236.9668753505
 20
199.7472673452
  0
LINE
  5
1A5
330
1F
100
AcDbEntity
  8
0
  6
Continuous
 62
     7
370
    15
100
AcDbLine
 10
243.245576477
 20
199.1361288151
 30
0.0
 11
243.245576477
 21
198.9861286043
 31
0.0
  0
LINE
  5
1A6
330
1F
100
AcDbEntity
  8
0
  6
Continuous
 62
     7
370
    15
100
AcDbLine
 10
243.245576477
 20
198.186129032
 30
0.0
 11
243.245576477
 21
197.2861286982
 31
0.0
  0
LINE
  5
1A7
330
1F
100
AcDbEntity
  8
0
  6
Continuous
 62
     7
370
    15
100
AcDbLine
 10
243.245576477
 20
188.6861288718
 30
0.0
 11
243.245576477
 21
187.6361287928
 31
0.0
  0
ARC
  5
1A8
330
1F
100
AcDbEntity
  8
0
  6
Continuous
 62
     7
370
    15
100
AcDbCircle
 10
135.245576787
 20
328.386128804
 30
0.0
 40
15.0
100
AcDbArc
 50
90.0
 51
180.0
  0
LINE
  5
1A9
330
1F
100
AcDbEntity
  8
0
  6
Continuous
 62
     7
370
    15
100
AcDbLine
 10
135.2455764696
 20
343.3861347644
 30
0.0
 11
135.2455764696
 21
328.3861341684
 31
0.0
  0
LINE
  5
1AA
330
1F
100
AcDbEntity
  8
0
  6
Continuous
 62
     7
370
    15
100
AcDbLine
 10
120.2455768049
 20
328.3861341684
 30
0.0
 11
135.2455764696
 21
328.3861341684
 31
0.0
  0
LINE
  5
1AB
330
1F
100
AcDbEntity
  8
0
  6
Continuous
 62
     7
370
    15
100
AcDbLine
 10
135.2455764696
 20
328.3861341684
 30
0.0
 11
135.2455764696
 21
58.3861234395
 31
0.0
  0
LINE
  5
1AC
330
1F
100
AcDbEntity
  8
0
  6
Continuous
 62
     7
370
    15
100
AcDbLine
 10
135.2455764696
 20
58.3861234395
 30
0.0
 11
120.2455768049
 21
58.3861234395
 31
0.0
  0
LINE
  5
1AD
330
1F
100
AcDbEntity
  8
0
  6
Continuous
 62
     7
370
    15
100
AcDbLine
 10
120.2455768049
 20
328.3861341684
 30
0.0
 11
120.2455768049
 21
58.3861234395
 31
0.0
  0
LINE
  5
1AE
330
1F
100
AcDbEntity
  8
0
  6
Continuous
 62
     7
370
    15
100
AcDbLine
 10
135.2455764696
 20
58.3861234395
 30
0.0
 11
135.2455764696
 21
43.3861228435
 31
0.0
  0
ARC
  5
1AF
330
1F
100
AcDbEntity
  8
0
  6
Continuous
 62
     7
370
    15
100
AcDbCircle
 10
135.245576787
 20
58.386128804
 30
0.0
 40
14.99999999999999
100
AcDbArc
 50
180.0
 51
270.0
  0
LINE
  5
1B0
330
1F
100
AcDbEntity
  8
0
  6
Continuous
 62
     7
370
    15
100
AcDbLine
 10
256.24557302
 20
343.3861347644
 30
0.0
 11
135.2455764696
 21
343.3861347644
 31
0.0
  0
LINE
  5
1B1
330
1F
100
AcDbEntity
  8
0
  6
Continuous
 62
     7
370
    15
100
AcDbLine
 10
256.24557302
 20
343.3861347644
 30
0.0
 11
256.24557302
 21
328.3861341684
 31
0.0
  0
LINE
  5
1B2
330
1F
100
AcDbEntity
  8
0
  6
Continuous
 62
     7
370
    15
100
AcDbLine
 10
256.24557302
 20
328.3861341684
 30
0.0
 11
135.2455764696
 21
328.3861341684
 31
0.0
  0
LINE
  5
1B3
330
1F
100
AcDbEntity
  8
0
  6
Continuous
 62
     7
370
    15
100
AcDbLine
 10
256.24557302
 20
58.3861234395
 30
0.0
 11
135.2455764696
 21
58.3861234395
 31
0.0
  0
LINE
  5
1B4
330
1F
100
AcDbEntity
  8
0
  6
Continuous
 62
     7
370
    15
100
AcDbLine
 10
256.24557302
 20
58.3861234395
 30
0.0
 11
256.24557302
 21
43.3861228435
 31
0.0
  0
LINE
  5
1B5
330
1F
100
AcDbEntity
  8
0
  6
Continuous
 62
     7
370
    15
100
AcDbLine
 10
256.24557302
 20
43.3861228435
 30
0.0
 11
135.2455764696
 21
43.3861228435
 31
0.0
  0
LINE
  5
1B6
330
1F
100
AcDbEntity
  8
0
  6
Continuous
 62
     7
370
    15
100
AcDbLine
 10
140.2455763578
 20
323.3861240356
 30
0.0
 11
140.2455763578
 21
63.3861335723
 31
0.0
  0
LINE
  5
1B7
330
1F
100
AcDbEntity
  8
0
  6
Continuous
 62
     7
370
    15
100
AcDbLine
 10
236.2455771923
 20
63.3861335723
 30
0.0
 11
140.2455763578
 21
63.3861335723
 31
0.0
  0
LINE
  5
1B8
330
1F
100
AcDbEntity
  8
0
  6
Continuous
 62
     7
370
    15
100
AcDbLine
 10
236.2455771923
 20
63.3861335723
 30
0.0
 11
236.2455771923
 21
180.5735823496
 31
0.0
  0
LINE
  5
1B9
330
1F
100
AcDbEntity
  8
0
  6
Continuous
 62
     7
370
    15
100
AcDbLine
 10
236.2455771923
 20
183.9133684321
 30
0.0
 11
236.2455771923
 21
185.386128424
 31
0.0
  0
LINE
  5
1BA
330
1F
100
AcDbEntity
  8
0
  6
Continuous
 62
     7
370
    15
100
AcDbLine
 10
236.2455771923
 20
201.3861291839
 30
0.0
 11
236.2455771923
 21
202.8455312161
 31
0.0
  0
LINE
  5
1BB
330
1F
100
AcDbEntity
  8
0
  6
Continuous
 62
     7
370
    15
100
AcDbLine
 10
236.2455771923
 20
206.1882472395
 30
0.0
 11
236.2455771923
 21
323.3861240356
 31
0.0
  0
LINE
  5
1BC
330
1F
100
AcDbEntity
  8
0
  6
Continuous
 62
     7
370
    15
100
AcDbLine
 10
236.2455771923
 20
323.3861240356
 30
0.0
 11
140.2455763578
 21
323.3861240356
 31
0.0
  0
LINE
  5
1BD
330
1F
100
AcDbEntity
  8
0
  6
Continuous
 62
     7
370
    15
100
AcDbLine
 10
256.24557302
 20
328.3861341684
 30
0.0
 11
256.24557302
 21
202.3620583846
 31
0.0
  0
LINE
  5
1BE
330
1F
100
AcDbEntity
  8
0
  6
Continuous
 62
     7
370
    15
100
AcDbLine
 10
256.24557302
 20
184.3782213314
 30
0.0
 11
256.24557302
 21
58.3861234395
 31
0.0
  0
LINE
  5
1BF
330
1F
100
AcDbEntity
  8
0
  6
Continuous
 62
     7
370
    15
100
AcDbLine
 10
260.2455811262
 20
63.3861335723
 30
0.0
 11
256.24557302
 21
63.3861335723
 31
0.0
  0
LINE
  5
1C0
330
1F
100
AcDbEntity
  8
0
  6
Continuous
 62
     7
370
    15
100
AcDbLine
 10
260.2455811262
 20
48.3861329763
 30
0.0
 11
256.24557302
 21
48.3861329763
 31
0.0
  0
LINE
  5
1C1
330
1F
100
AcDbEntity
  8
0
  6
Continuous
 62
     7
370
    15
100
AcDbLine
 10
260.2455811262
 20
338.3861246316
 30
0.0
 11
256.24557302
 21
338.3861246316
 31
0.0
  0
LINE
  5
1C2
330
1F
100
AcDbEntity
  8
0
  6
Continuous
 62
     7
370
    15
100
AcDbLine
 10
260.2455811262
 20
323.3861240356
 30
0.0
 11
256.24557302
 21
323.3861240356
 31
0.0
  0
LINE
  5
1C3
330
1F
100
AcDbEntity
  8
0
  6
Continuous
 62
     7
370
    15
100
AcDbLine
 10
394.306867382
 20
413.0622088547
 30
0.0
 11
395.5068578929
 21
413.0622088547
 31
0.0
  0
LINE
  5
1C4
330
1F
100
AcDbEntity
  8
0
  6
Continuous
 62
     7
370
    15
100
AcDbLine
 10
394.2068656892
 20
415.5622064705
 30
0.0
 11
394.306867382
 21
415.5622064705
 31
0.0
  0
LINE
  5
1C5
330
1F
100
AcDbEntity
  8
0
  6
Continuous
 62
     7
370
    15
100
AcDbLine
 10
394.306867382
 20
421.5622037287
 30
0.0
 11
394.2068656892
 21
421.5622037287
 31
0.0
  0
SPLINE
  5
1C6
330
1F
100
AcDbEntity
  8
0
  6
Continuous
 62
     7
370
    15
100
AcDbSpline
210
0.0
220
0.0
230
1.0
 70
     8
 71
     3
 72
    15
 73
    11
 74
     0
 42
0.00000001
 43
0.00000001
 40
0.0
 40
0.0
 40
0.0
 40
0.0
 40
0.1250754827816088
 40
0.2501512818632861
 40
0.3752910914598436
 40
0.5003038788291839
 40
0.6252879686926238
 40
0.7502620296543432
 40
0.8750785631983024
 40
1.0
 40
1.0
 40
1.0
 40
1.0
 10
393.1213011950743
 20
443.6200350161066
 30
0.0
 10
393.0951762559766
 20
443.878799031581
 30
0.0
 10
393.0429263117146
 20
444.3963277169112
 30
0.0
 10
392.9640591307517
 20
445.1774412630202
 30
0.0
 10
392.8896259740796
 20
445.9146193880793
 30
0.0
 10
392.8226359946029
 20
446.5781997956727
 30
0.0
 10
392.7665287669975
 20
447.133963490042
 30
0.0
 10
392.7239868977866
 20
447.5550600413048
 30
0.0
 10
392.6951607681208
 20
447.8406675253734
 30
0.0
 10
392.6908181839531
 20
447.8837024800307
 30
0.0
 10
392.6886459798109
 20
447.9052289958468
 30
0.0
  0
SPLINE
  5
1C7
330
1F
100
AcDbEntity
  8
0
  6
Continuous
 62
     7
370
    15
100
AcDbSpline
210
0.0
220
0.0
230
1.0
 70
     8
 71
     3
 72
    15
 73
    11
 74
     0
 42
0.00000001
 43
0.00000001
 40
0.0
 40
0.0
 40
0.0
 40
0.0
 40
0.12493963109233
 40
0.2497688790883884
 40
0.3747512836112952
 40
0.4997376592982848
 40
0.6247480829411527
 40
0.7498793062078932
 40
0.8749425528717422
 40
0.9999999999999999
 40
0.9999999999999999
 40
0.9999999999999999
 40
0.9999999999999999
 10
389.7044053286803
 20
447.6038455601206
 30
0.0
 10
389.7065820513057
 20
447.5822673937358
 30
0.0
 10
389.7109335734408
 20
447.5391301250921
 30
0.0
 10
389.7397796586664
 20
447.2534198488439
 30
0.0
 10
389.7823158102042
 20
446.832236082776
 30
0.0
 10
389.8384231931542
 20
446.2764596649871
 30
0.0
 10
389.9054176882625
 20
445.6129338488956
 30
0.0
 10
389.9798301483576
 20
444.8758875482686
 30
0.0
 10
390.0586879755754
 20
444.0949790149025
 30
0.0
 10
390.110916889949
 20
443.5776220753942
 30
0.0
 10
390.1370307416212
 20
443.3189496036043
 30
0.0
  0
LINE
  5
1C8
330
1F
100
AcDbEntity
  8
0
  6
Continuous
 62
     7
370
    15
100
AcDbLine
 10
390.1367476196
 20
443.3188154932
 30
0.0
 11
391.7058249921
 21
427.7778356905
 31
0.0
  0
LINE
  5
1C9
330
1F
100
AcDbEntity
  8
0
  6
Continuous
 62
     7
370
    15
100
AcDbLine
 10
394.6906467885
 20
428.0791967745
 30
0.0
 11
393.1215843171
 21
443.6201691266
 31
0.0
  0
SPLINE
  5
1CA
330
1F
100
AcDbEntity
  8
0
  6
Continuous
 62
     7
370
    15
100
AcDbSpline
210
0.0
220
0.0
230
1.0
 70
     8
 71
     3
 72
     9
 73
     5
 74
     0
 42
0.00000001
 43
0.00000001
 40
0.0
 40
0.0
 40
0.0
 40
0.0
 40
0.4837344539668944
 40
1.0
 40
1.0
 40
1.0
 40
1.0
 10
391.8759068459761
 20
426.0964631672373
 30
0.0
 10
391.8853674905082
 20
426.0322383822936
 30
0.0
 10
391.9049250069401
 20
425.8994697022524
 30
0.0
 10
391.9387673633573
 20
425.8633142556201
 30
0.0
 10
391.9562390059721
 20
425.8446484442225
 30
0.0
  0
SPLINE
  5
1CB
330
1F
100
AcDbEntity
  8
0
  6
Continuous
 62
     7
370
    15
100
AcDbSpline
210
0.0
220
0.0
230
1.0
 70
     8
 71
     3
 72
    11
 73
     7
 74
     0
 42
0.00000001
 43
0.00000001
 40
0.0
 40
0.0
 40
0.0
 40
0.0
 40
0.2484397085448712
 40
0.4978879353345394
 40
0.7483890246597131
 40
0.9999999999999999
 40
0.9999999999999999
 40
0.9999999999999999
 40
0.9999999999999999
 10
391.7061081141722
 20
427.7779996033182
 30
0.0
 10
391.724122981215
 20
427.5995282748791
 30
0.0
 10
391.7602258450034
 20
427.2418611299875
 30
0.0
 10
391.8072180315474
 20
426.7770195847519
 30
0.0
 10
391.8460469858513
 20
426.3941373405906
 30
0.0
 10
391.8610747739622
 20
426.2468477945878
 30
0.0
 10
391.8686052769911
 20
426.1730402346125
 30
0.0
  0
SPLINE
  5
1CC
330
1F
100
AcDbEntity
  8
0
  6
Continuous
 62
     7
370
    15
100
AcDbSpline
210
0.0
220
0.0
230
1.0
 70
     8
 71
     3
 72
    19
 73
    15
 74
     0
 42
0.00000001
 43
0.00000001
 40
0.0
 40
0.0
 40
0.0
 40
0.0
 40
0.0802803041969105
 40
0.1534414420360333
 40
0.2193399577831859
 40
0.2779481048339253
 40
0.3728435281058353
 40
0.4421524404775586
 40
0.5315362088906506
 40
0.6554828487286151
 40
0.7303554330370282
 40
0.8130766996630142
 40
0.9031427803889727
 40
1.0
 40
1.0
 40
1.0
 40
1.0
 10
391.8915530652296
 20
426.0138213272562
 30
0.0
 10
391.9269136920013
 20
425.8909475292706
 30
0.0
 10
391.994499205253
 20
425.6560962423956
 30
0.0
 10
392.1917226039714
 20
425.3616845895318
 30
0.0
 10
392.416576401208
 20
425.1375596460871
 30
0.0
 10
392.7122473321758
 20
424.9445317290359
 30
0.0
 10
393.0541876152566
 20
424.8266001783905
 30
0.0
 10
393.4639454943147
 20
424.7968300827659
 30
0.0
 10
393.9030300481674
 20
424.8991299160953
 30
0.0
 10
394.2895699224723
 20
425.1503596963927
 30
0.0
 10
394.5824111591567
 20
425.4910736920625
 30
0.0
 10
394.7631808691223
 20
425.8465411331339
 30
0.0
 10
394.8691000270325
 20
426.273482002821
 30
0.0
 10
394.8368295350493
 20
426.5685523655352
 30
0.0
 10
394.8201080769789
 20
426.7214476700296
 30
0.0
  0
SPLINE
  5
1CD
330
1F
100
AcDbEntity
  8
0
  6
Continuous
 62
     7
370
    15
100
AcDbSpline
210
0.0
220
0.0
230
1.0
 70
     8
 71
     3
 72
    11
 73
     7
 74
     0
 42
0.00000001
 43
0.00000001
 40
0.0
 40
0.0
 40
0.0
 40
0.0
 40
0.2477445749809089
 40
0.4969511806463745
 40
0.7476788971516558
 40
1.0
 40
1.0
 40
1.0
 40
1.0
 10
394.8438903302443
 20
426.5537649031153
 30
0.0
 10
394.8374481965047
 20
426.6183904130067
 30
0.0
 10
394.8245259116554
 20
426.7480228113869
 30
0.0
 10
394.7885735743984
 20
427.1058976840973
 30
0.0
 10
394.7435883849014
 20
427.5522156770026
 30
0.0
 10
394.7081525871922
 20
427.9030765559426
 30
0.0
 10
394.6903785676253
 20
428.0790626640787
 30
0.0
  0
LINE
  5
1CE
330
1F
100
AcDbEntity
  8
0
  6
Continuous
 62
     7
370
    15
100
AcDbLine
 10
394.9741711826
 20
437.7338751789
 30
0.0
 11
394.9741562814
 21
438.0336939927
 31
0.0
  0
LINE
  5
1CF
330
1F
100
AcDbEntity
  8
0
  6
Continuous
 62
     7
370
    15
100
AcDbLine
 10
394.1741576404
 20
438.0336939927
 30
0.0
 11
394.1741576404
 21
437.7363264199
 31
0.0
  0
SPLINE
  5
1D0
330
1F
100
AcDbEntity
  8
0
  6
Continuous
 62
     7
370
    15
100
AcDbSpline
210
0.0
220
0.0
230
1.0
 70
    24
 71
     3
 72
    11
 73
     7
 74
     0
 42
0.00000001
 43
0.00000001
 40
0.0
 40
0.0
 40
0.0
 40
0.0
 40
0.0207832163337777
 40
0.3465538622668197
 40
0.6711424087355256
 40
1.0
 40
1.0
 40
1.0
 40
1.0
 10
394.1741576403868
 20
438.3200123544207
 30
0.0
 10
394.1741576403868
 20
438.3166906422451
 30
0.0
 10
394.1741576403868
 20
438.2613020938472
 30
0.0
 10
394.1741576403868
 20
438.1680691991237
 30
0.0
 10
394.1741576403868
 20
438.0553557948015
 30
0.0
 10
394.1741576403868
 20
438.0208334688812
 30
0.0
 10
394.1741576403868
 20
438.0034595365992
 30
0.0
  0
SPLINE
  5
1D1
330
1F
100
AcDbEntity
  8
0
  6
Continuous
 62
     7
370
    15
100
AcDbSpline
210
0.0
220
0.0
230
1.0
 70
    24
 71
     3
 72
    11
 73
     7
 74
     0
 42
0.00000001
 43
0.00000001
 40
0.0
 40
0.0
 40
0.0
 40
0.0
 40
0.2504863591729243
 40
0.4977314983156908
 40
0.7458651761595598
 40
1.0
 40
1.0
 40
1.0
 40
1.0
 10
394.9741711825621
 20
438.0010082955828
 30
0.0
 10
394.974171182562
 20
438.0172250682742
 30
0.0
 10
394.974171182562
 20
438.0494487733741
 30
0.0
 10
394.9741711825621
 20
438.1582313603409
 30
0.0
 10
394.9741711825621
 20
438.2970635662553
 30
0.0
 10
394.9741711825621
 20
438.4040902516508
 30
0.0
 10
394.9741711825621
 20
438.4582429762354
 30
0.0
  0
LINE
  5
1D2
330
1F
100
AcDbEntity
  8
0
  6
Continuous
 62
     7
370
    15
100
AcDbLine
 10
393.9674338311
 20
438.5622083779
 30
0.0
 11
394.1763481111
 21
438.3149832125
 31
0.0
  0
LINE
  5
1D3
330
1F
100
AcDbEntity
  8
0
  6
Continuous
 62
     7
370
    15
100
AcDbLine
 10
394.9741711826
 20
438.4582429762
 30
0.0
 11
394.9741711826
 21
438.5622083779
 31
0.0
  0
LINE
  5
1D4
330
1F
100
AcDbEntity
  8
0
  6
Continuous
 62
     7
370
    15
100
AcDbLine
 10
389.6977743119
 20
447.7002262707
 30
0.0
 11
389.6821727962
 21
448.159457707
 31
0.0
  0
SPLINE
  5
1D5
330
1F
100
AcDbEntity
  8
0
  6
Continuous
 62
     7
370
    15
100
AcDbSpline
210
0.0
220
0.0
230
1.0
 70
     8
 71
     3
 72
    11
 73
     7
 74
     0
 42
0.00000001
 43
0.00000001
 40
0.0
 40
0.0
 40
0.0
 40
0.0
 40
0.1207587006651574
 40
0.4133918797399851
 40
0.7063569142102074
 40
1.0
 40
1.0
 40
1.0
 40
1.0
 10
391.7304566115629
 20
427.5367945070734
 30
0.0
 10
391.7403740922063
 20
427.4384939178605
 30
0.0
 10
391.774324490338
 20
427.1019826343634
 30
0.0
 10
391.8216970512685
 20
426.6330712791408
 30
0.0
 10
391.8645777302049
 20
426.2083369045092
 30
0.0
 10
391.8721275651396
 20
426.1337831381792
 30
0.0
 10
391.8759068459761
 20
426.0964631672373
 30
0.0
  0
LINE
  5
1D6
330
1F
100
AcDbEntity
  8
0
  6
Continuous
 62
     7
370
    15
100
AcDbLine
 10
390.0586208314
 20
478.5622074838
 30
0.0
 11
389.3068572492
 21
478.288592362
 31
0.0
  0
LINE
  5
1D7
330
1F
100
AcDbEntity
  8
0
  6
Continuous
 62
     7
370
    15
100
AcDbLine
 10
395.5068578929
 20
477.5622054573
 30
0.0
 11
395.2068677158
 21
477.5622054573
 31
0.0
  0
LINE
  5
1D8
330
1F
100
AcDbEntity
  8
0
  6
Continuous
 62
     7
370
    15
100
AcDbLine
 10
395.2068677158
 20
476.5622108813
 30
0.0
 11
395.106866023
 21
476.5622108813
 31
0.0
  0
LINE
  5
1D9
330
1F
100
AcDbEntity
  8
0
  6
Continuous
 62
     7
370
    15
100
AcDbLine
 10
395.106866023
 20
470.5622061725
 30
0.0
 11
395.2068677158
 21
470.5622061725
 31
0.0
  0
LINE
  5
1DA
330
1F
100
AcDbEntity
  8
0
  6
Continuous
 62
     7
370
    15
100
AcDbLine
 10
395.2068677158
 20
453.5622089739
 30
0.0
 11
395.106866023
 21
453.5622089739
 31
0.0
  0
LINE
  5
1DB
330
1F
100
AcDbEntity
  8
0
  6
Continuous
 62
     7
370
    15
100
AcDbLine
 10
395.106866023
 20
447.5622117157
 30
0.0
 11
395.2068677158
 21
447.5622117157
 31
0.0
  0
LINE
  5
1DC
330
1F
100
AcDbEntity
  8
0
  6
Continuous
 62
     7
370
    15
100
AcDbLine
 10
395.5068578929
 20
421.5622037287
 30
0.0
 11
395.5068578929
 21
416.5622084971
 31
0.0
  0
LINE
  5
1DD
330
1F
100
AcDbEntity
  8
0
  6
Continuous
 62
     7
370
    15
100
AcDbLine
 10
410.506858489
 20
421.5622037287
 30
0.0
 11
410.506858489
 21
416.5622084971
 31
0.0
  0
LINE
  5
1DE
330
1F
100
AcDbEntity
  8
0
  6
Continuous
 62
     7
370
    15
100
AcDbLine
 10
395.5068578929
 20
416.5622084971
 30
0.0
 11
410.506858489
 21
416.5622084971
 31
0.0
  0
LINE
  5
1DF
330
1F
100
AcDbEntity
  8
0
  6
Continuous
 62
     7
370
    15
100
AcDbLine
 10
395.5068578929
 20
421.5622037287
 30
0.0
 11
410.506858489
 21
421.5622037287
 31
0.0
  0
LINE
  5
1E0
330
1F
100
AcDbEntity
  8
0
  6
Continuous
 62
     7
370
    15
100
AcDbLine
 10
680.5068692178
 20
421.5622037287
 30
0.0
 11
680.5068692178
 21
416.5622084971
 31
0.0
  0
LINE
  5
1E1
330
1F
100
AcDbEntity
  8
0
  6
Continuous
 62
     7
370
    15
100
AcDbLine
 10
410.506858489
 20
416.5622084971
 30
0.0
 11
680.5068692178
 21
416.5622084971
 31
0.0
  0
LINE
  5
1E2
330
1F
100
AcDbEntity
  8
0
  6
Continuous
 62
     7
370
    15
100
AcDbLine
 10
410.506858489
 20
421.5622037287
 30
0.0
 11
680.5068692178
 21
421.5622037287
 31
0.0
  0
ARC
  5
1E3
330
1F
100
AcDbEntity
  8
0
  6
Continuous
 62
     7
370
    15
100
AcDbCircle
 10
410.5068638534
 20
416.5622080679
 30
0.0
 40
15.0
100
AcDbArc
 50
180.0
 51
270.0
  0
LINE
  5
1E4
330
1F
100
AcDbEntity
  8
0
  6
Continuous
 62
     7
370
    15
100
AcDbLine
 10
410.506858489
 20
401.562207901
 30
0.0
 11
410.506858489
 21
416.5622084971
 31
0.0
  0
LINE
  5
1E5
330
1F
100
AcDbEntity
  8
0
  6
Continuous
 62
     7
370
    15
100
AcDbLine
 10
410.506858489
 20
401.562207901
 30
0.0
 11
680.5068692178
 21
401.562207901
 31
0.0
  0
LINE
  5
1E6
330
1F
100
AcDbEntity
  8
0
  6
Continuous
 62
     7
370
    15
100
AcDbLine
 10
680.5068692178
 20
416.5622084971
 30
0.0
 11
680.5068692178
 21
401.562207901
 31
0.0
  0
LINE
  5
1E7
330
1F
100
AcDbEntity
  8
0
  6
Continuous
 62
     7
370
    15
100
AcDbLine
 10
695.5068698138
 20
421.5622037287
 30
0.0
 11
695.5068698138
 21
416.5622084971
 31
0.0
  0
LINE
  5
1E8
330
1F
100
AcDbEntity
  8
0
  6
Continuous
 62
     7
370
    15
100
AcDbLine
 10
695.5068698138
 20
416.5622084971
 30
0.0
 11
680.5068692178
 21
416.5622084971
 31
0.0
  0
LINE
  5
1E9
330
1F
100
AcDbEntity
  8
0
  6
Continuous
 62
     7
370
    15
100
AcDbLine
 10
695.5068698138
 20
421.5622037287
 30
0.0
 11
680.5068692178
 21
421.5622037287
 31
0.0
  0
ARC
  5
1EA
330
1F
100
AcDbEntity
  8
0
  6
Continuous
 62
     7
370
    15
100
AcDbCircle
 10
680.5068638534
 20
416.5622080679
 30
0.0
 40
15.0
100
AcDbArc
 50
270.0
 51
0.0
  0
LINE
  5
1EB
330
1F
100
AcDbEntity
  8
0
  6
Continuous
 62
     7
370
    15
100
AcDbLine
 10
394.306867382
 20
419.5799767609
 30
0.0
 11
395.5068578929
 21
419.5799767609
 31
0.0
  0
LINE
  5
1EC
330
1F
100
AcDbEntity
  8
0
  6
Continuous
 62
     7
370
    15
100
AcDbLine
 10
394.306867382
 20
417.4760073061
 30
0.0
 11
395.5068578929
 21
417.4760073061
 31
0.0
  0
LINE
  5
1ED
330
1F
100
AcDbEntity
  8
0
  6
Continuous
 62
     7
370
    15
100
AcDbLine
 10
394.306867382
 20
417.4760073061
 30
0.0
 11
394.306867382
 21
419.5799767609
 31
0.0
  0
LINE
  5
1EE
330
1F
100
AcDbEntity
  8
0
  6
Continuous
 62
     7
370
    15
100
AcDbLine
 10
394.306867382
 20
424.5622098084
 30
0.0
 11
395.5068578929
 21
424.5622098084
 31
0.0
  0
LINE
  5
1EF
330
1F
100
AcDbEntity
  8
0
  6
Continuous
 62
     7
370
    15
100
AcDbLine
 10
395.5068578929
 20
421.5622037287
 30
0.0
 11
395.5068578929
 21
424.5622098084
 31
0.0
  0
LINE
  5
1F0
330
1F
100
AcDbEntity
  8
0
  6
Continuous
 62
     7
370
    15
100
AcDbLine
 10
394.306867382
 20
424.5622098084
 30
0.0
 11
394.306867382
 21
419.5799767609
 31
0.0
  0
LINE
  5
1F1
330
1F
100
AcDbEntity
  8
0
  6
Continuous
 62
     7
370
    15
100
AcDbLine
 10
395.5068578929
 20
416.5622084971
 30
0.0
 11
395.5068578929
 21
413.0622088547
 31
0.0
  0
LINE
  5
1F2
330
1F
100
AcDbEntity
  8
0
  6
Continuous
 62
     7
370
    15
100
AcDbLine
 10
394.306867382
 20
413.0622088547
 30
0.0
 11
394.306867382
 21
417.4760073061
 31
0.0
  0
LINE
  5
1F3
330
1F
100
AcDbEntity
  8
0
  6
Continuous
 62
     7
370
    15
100
AcDbLine
 10
394.2068656892
 20
415.5622064705
 30
0.0
 11
394.2068656892
 21
421.5622037287
 31
0.0
  0
ARC
  5
1F4
330
1F
100
AcDbEntity
  8
0
  6
Continuous
 62
     7
370
    15
100
AcDbCircle
 10
392.7068638534
 20
426.2622080679
 30
0.0
 40
2.800000000000011
100
AcDbArc
 50
0.0
 51
45.4024529621
  0
LINE
  5
1F5
330
1F
100
AcDbEntity
  8
0
  6
Continuous
 62
     7
370
    15
100
AcDbLine
 10
391.5992071838
 20
428.8338064785
 30
0.0
 11
391.002326271
 21
428.4835993882
 31
0.0
  0
LINE
  5
1F6
330
1F
100
AcDbEntity
  8
0
  6
Continuous
 62
     7
370
    15
100
AcDbLine
 10
388.1894042701
 20
424.8125940199
 30
0.0
 11
391.7328407974
 21
427.5315791007
 31
0.0
  0
LINE
  5
1F7
330
1F
100
AcDbEntity
  8
0
  6
Continuous
 62
     7
370
    15
100
AcDbLine
 10
387.4588897437
 20
425.7646143075
 30
0.0
 11
388.1894042701
 21
424.8125940199
 31
0.0
  0
LINE
  5
1F8
330
1F
100
AcDbEntity
  8
0
  6
Continuous
 62
     7
370
    15
100
AcDbLine
 10
391.002326271
 20
428.4835993882
 30
0.0
 11
387.4588897437
 21
425.7646143075
 31
0.0
  0
LINE
  5
1F9
330
1F
100
AcDbEntity
  8
0
  6
Continuous
 62
     7
370
    15
100
AcDbLine
 10
395.5068578929
 20
424.5622098084
 30
0.0
 11
395.5068578929
 21
425.562211835
 31
0.0
  0
LINE
  5
1FA
330
1F
100
AcDbEntity
  8
0
  6
Continuous
 62
     7
370
    15
100
AcDbLine
 10
394.306867382
 20
425.2031534548
 30
0.0
 11
394.306867382
 21
424.5622098084
 31
0.0
  0
LINE
  5
1FB
330
1F
100
AcDbEntity
  8
0
  6
Continuous
 62
     7
370
    15
100
AcDbLine
 10
387.2373839826
 20
424.0820794936
 30
0.0
 11
386.5068694562
 21
425.0340997811
 31
0.0
  0
LWPOLYLINE
  5
1FC
330
1F
100
AcDbEntity
  8
0
  6
Continuous
 62
     7
370
    15
100
AcDbPolyline
 90
        9
 70
   128
 43
0.0
 10
386.5068694562
 20
425.0340997811
 10
386.525153181
 20
425.0481366749
 10
386.5793338031
 20
425.0897109147
 10
386.6673102588
 20
425.1572131749
 10
386.7856999845
 20
425.2480655547
 10
386.9299730272
 20
425.3587662812
 10
387.0945712537
 20
425.4850685235
 10
387.2731616706
 20
425.6220996018
 10
387.4588897437
 20
425.7646143075
  0
LWPOLYLINE
  5
1FD
330
1F
100
AcDbEntity
  8
0
  6
Continuous
 62
     7
370
    15
100
AcDbPolyline
 90
        9
 70
   128
 43
0.0
 10
388.1894042701
 20
424.8125940199
 10
388.003676197
 20
424.6700793143
 10
387.8250708789
 20
424.5330333348
 10
387.6604875535
 20
424.4067459937
 10
387.5162145108
 20
424.2960452672
 10
387.3978247852
 20
424.2051928874
 10
387.3098483295
 20
424.1376906271
 10
387.2556677074
 20
424.0961163874
 10
387.2373839826
 20
424.0820794936
  0
SPLINE
  5
1FE
330
1F
100
AcDbEntity
  8
0
  6
Continuous
 62
     7
370
    15
100
AcDbSpline
210
0.0
220
0.0
230
1.0
 70
     8
 71
     3
 72
    12
 73
     8
 74
     0
 42
0.00000001
 43
0.00000001
 40
0.0
 40
0.0
 40
0.0
 40
0.0
 40
0.2340518048260158
 40
0.4681083238238113
 40
0.7021649540123228
 40
0.9362191112700744
 40
0.9999999999999999
 40
0.9999999999999999
 40
0.9999999999999999
 40
0.9999999999999999
 10
391.8038448304426
 20
443.239325248765
 30
0.0
 10
391.6074519683436
 20
443.2199423431979
 30
0.0
 10
391.2146622884842
 20
443.1811761416615
 30
0.0
 10
390.6771635904566
 20
443.1759384220662
 30
0.0
 10
390.3036611247894
 20
443.2144042790749
 30
0.0
 10
390.1244685207841
 20
443.2690683775699
 30
0.0
 10
390.153187629661
 20
443.313023547469
 30
0.0
 10
390.1593377799284
 20
443.3224364753237
 30
0.0
  0
SPLINE
  5
1FF
330
1F
100
AcDbEntity
  8
0
  6
Continuous
 62
     7
370
    15
100
AcDbSpline
210
0.0
220
0.0
230
1.0
 70
     8
 71
     3
 72
    11
 73
     7
 74
     0
 42
0.00000001
 43
0.00000001
 40
0.0
 40
0.0
 40
0.0
 40
0.0
 40
0.198686486802408
 40
0.4657890565669508
 40
0.7328959069263856
 40
1.0
 40
1.0
 40
1.0
 40
1.0
 10
393.099754115988
 20
443.6182096238604
 30
0.0
 10
393.0985703632159
 20
443.5937198746997
 30
0.0
 10
393.0957952419895
 20
443.5363075295492
 30
0.0
 10
392.8262780911025
 20
443.4292123572037
 30
0.0
 10
392.3792097011547
 20
443.3184094574167
 30
0.0
 10
391.9956324607459
 20
443.2656865609405
 30
0.0
 10
391.8038448304426
 20
443.239325248765
 30
0.0
  0
SPLINE
  5
200
330
1F
100
AcDbEntity
  8
0
  6
Continuous
 62
     7
370
    15
100
AcDbSpline
210
0.0
220
0.0
230
1.0
 70
     8
 71
     3
 72
    12
 73
     8
 74
     0
 42
0.00000001
 43
0.00000001
 40
0.0
 40
0.0
 40
0.0
 40
0.0
 40
0.2339702271248437
 40
0.467932890478384
 40
0.7018980302872534
 40
0.9358659172968862
 40
1.0
 40
1.0
 40
1.0
 40
1.0
 10
391.1968758315336
 20
449.2511987324228
 30
0.0
 10
391.0007904680293
 20
449.2286935379676
 30
0.0
 10
390.6086260800531
 20
449.1836838766035
 30
0.0
 10
390.105689622597
 20
448.8361916964863
 30
0.0
 10
389.7858765040972
 20
448.3427028436503
 30
0.0
 10
389.6579483557484
 20
447.8891171215859
 30
0.0
 10
389.7157394272758
 20
447.6461246316301
 30
0.0
 10
389.7281726807844
 20
447.5938468809595
 30
0.0
  0
SPLINE
  5
201
330
1F
100
AcDbEntity
  8
0
  6
Continuous
 62
     7
370
    15
100
AcDbSpline
210
0.0
220
0.0
230
1.0
 70
     8
 71
     3
 72
    11
 73
     7
 74
     0
 42
0.00000001
 43
0.00000001
 40
0.0
 40
0.0
 40
0.0
 40
0.0
 40
0.1976896372521521
 40
0.4651276561127174
 40
0.7325628442169249
 40
1.0
 40
1.0
 40
1.0
 40
1.0
 10
392.6670839995634
 20
447.9009076591005
 30
0.0
 10
392.6488038056145
 20
448.0456586468286
 30
0.0
 10
392.605793843722
 20
448.3862313170901
 30
0.0
 10
392.2803346127405
 20
448.8360042666661
 30
0.0
 10
391.7870430435598
 20
449.1837277116641
 30
0.0
 10
391.3935987180076
 20
449.2287083370119
 30
0.0
 10
391.1968758315336
 20
449.2511987324228
 30
0.0
  0
SPLINE
  5
202
330
1F
100
AcDbEntity
  8
0
  6
Continuous
 62
     7
370
    15
100
AcDbSpline
210
0.0
220
0.0
230
1.0
 70
     8
 71
     3
 72
    12
 73
     8
 74
     0
 42
0.00000001
 43
0.00000001
 40
0.0
 40
0.0
 40
0.0
 40
0.0
 40
0.2350124346011034
 40
0.4700298895179127
 40
0.7050473250288888
 40
0.9400627265619128
 40
1.0
 40
1.0
 40
1.0
 40
1.0
 10
393.3729222029936
 20
427.6983528967371
 30
0.0
 10
393.1765366538479
 20
427.6789749561361
 30
0.0
 10
392.7837613603852
 20
427.6402186609841
 30
0.0
 10
392.2461526592577
 20
427.6349511984784
 30
0.0
 10
391.8730701470838
 20
427.6734765423042
 30
0.0
 10
391.6940740164718
 20
427.7275976949213
 30
0.0
 10
391.7219465232987
 20
427.7708990716793
 30
0.0
 10
391.7276104897749
 20
427.7796983356943
 30
0.0
  0
SPLINE
  5
203
330
1F
100
AcDbEntity
  8
0
  6
Continuous
 62
     7
370
    15
100
AcDbSpline
210
0.0
220
0.0
230
1.0
 70
     8
 71
     3
 72
    11
 73
     7
 74
     0
 42
0.00000001
 43
0.00000001
 40
0.0
 40
0.0
 40
0.0
 40
0.0
 40
0.1989239597362801
 40
0.465950584310487
 40
0.7329742733226847
 40
1.0
 40
1.0
 40
1.0
 40
1.0
 10
394.6688761920225
 20
428.0773490305414
 30
0.0
 10
394.6677024045865
 20
428.0528227524333
 30
0.0
 10
394.6649529774066
 20
427.9953734957898
 30
0.0
 10
394.3953460987232
 20
427.8882555785175
 30
0.0
 10
393.9482850675706
 20
427.7774324671726
 30
0.0
 10
393.5647103123623
 20
427.7247128205995
 30
0.0
 10
393.3729222029936
 20
427.6983528967371
 30
0.0
  0
ARC
  5
204
330
1F
100
AcDbEntity
  8
0
  6
Continuous
 62
     7
370
    15
100
AcDbCircle
 10
394.5741500661
 20
437.9999837093
 30
0.0
 40
0.4000075274666112
100
AcDbArc
 50
0.1467585748
 51
179.5021275156
  0
ELLIPSE
  5
205
330
1F
100
AcDbEntity
  8
0
  6
Continuous
 62
     7
370
    15
100
AcDbEllipse
 10
394.5741632537
 20
437.7350996742
 30
0.0
 11
0.3991830274373455
 21
-0.02624604221153959
 31
0.0
210
0.0
220
0.0
230
1.0
 40
0.9763157485
 41
0.0
 42
6.283185307179586
  0
SPLINE
  5
206
330
1F
100
AcDbEntity
  8
0
  6
Continuous
 62
     7
370
    15
100
AcDbSpline
210
0.0
220
0.0
230
1.0
 70
     8
 71
     3
 72
    13
 73
     9
 74
     0
 42
0.00000001
 43
0.00000001
 40
0.0
 40
0.0
 40
0.0
 40
0.0
 40
0.0081702280425704
 40
0.2391539873185931
 40
0.4710971973866074
 40
0.6931205590767906
 40
0.9042225733627326
 40
1.0
 40
1.0
 40
1.0
 40
1.0
 10
394.5741644114744
 20
438.4639352198114
 30
0.0
 10
394.5725055105
 20
438.463540423746
 30
0.0
 10
394.5239471617577
 20
438.4519841914437
 30
0.0
 10
394.4278136770722
 20
438.4287912606467
 30
0.0
 10
394.3049812011855
 20
438.3851338512418
 30
0.0
 10
394.21932900774
 20
438.3476945060919
 30
0.0
 10
394.1753111803667
 20
438.3265447993272
 30
0.0
 10
394.1785431570859
 20
438.321566185519
 30
0.0
 10
394.179551860739
 20
438.3200123544207
 30
0.0
  0
SPLINE
  5
207
330
1F
100
AcDbEntity
  8
0
  6
Continuous
 62
     7
370
    15
100
AcDbSpline
210
0.0
220
0.0
230
1.0
 70
     8
 71
     3
 72
    13
 73
     9
 74
     0
 42
0.00000001
 43
0.00000001
 40
0.0
 40
0.0
 40
0.0
 40
0.0
 40
0.1252289053032055
 40
0.2499779394264892
 40
0.4999780623493859
 40
0.7499979040631034
 40
0.8747543590072153
 40
1.0
 40
1.0
 40
1.0
 40
1.0
 10
394.9741711825621
 20
438.4582429762354
 30
0.0
 10
394.9724568586256
 20
438.458265820754
 30
0.0
 10
394.96903477996
 20
438.4583114222521
 30
0.0
 10
394.9346549252743
 20
438.4588065010763
 30
0.0
 10
394.8593910951599
 20
438.4598747687302
 30
0.0
 10
394.7507287568022
 20
438.4614267744137
 30
0.0
 10
394.6520155174619
 20
438.4628233029228
 30
0.0
 10
394.6001486099433
 20
438.4635640976706
 30
0.0
 10
394.5741644114744
 20
438.4639352198114
 30
0.0
  0
SPLINE
  5
208
330
1F
100
AcDbEntity
  8
0
  6
Continuous
 62
     7
370
    15
100
AcDbSpline
210
0.0
220
0.0
230
1.0
 70
     8
 71
     3
 72
    10
 73
     6
 74
     0
 42
0.00000001
 43
0.00000001
 40
0.0
 40
0.0
 40
0.0
 40
0.0
 40
0.0190107309040389
 40
0.5253203859619627
 40
1.0
 40
1.0
 40
1.0
 40
1.0
 10
394.5741644114744
 20
438.4639352198114
 30
0.0
 10
394.5756887614552
 20
438.4646729166118
 30
0.0
 10
394.6178108726096
 20
438.4850575704099
 30
0.0
 10
394.7003297066339
 20
438.5234723057006
 30
0.0
 10
394.7704852813071
 20
438.5495769175254
 30
0.0
 10
394.804432055403
 20
438.5622083778849
 30
0.0
  0
LINE
  5
209
330
1F
100
AcDbEntity
  8
0
  6
Continuous
 62
     7
370
    15
100
AcDbLine
 10
389.6976402015
 20
447.7031692501
 30
0.0
 11
389.7100975723
 21
447.5523993011
 31
0.0
  0
LINE
  5
20A
330
1F
100
AcDbEntity
  8
0
  6
Continuous
 62
     7
370
    15
100
AcDbLine
 10
392.689867875
 20
447.8959083195
 30
0.0
 11
392.6542839021
 21
448.1060668464
 31
0.0
  0
ARC
  5
20B
330
1F
100
AcDbEntity
  8
0
  6
Continuous
 62
     7
370
    15
100
AcDbCircle
 10
390.6068638534
 20
441.5822080679
 30
0.0
 40
2.200000000000032
100
AcDbArc
 50
103.5934783352
 51
268.1042765976
  0
LINE
  5
20C
330
1F
100
AcDbEntity
  8
0
  6
Continuous
 62
     7
370
    15
100
AcDbLine
 10
387.0600303621
 20
442.9599731799
 30
0.0
 11
387.3936822624
 21
444.8522045846
 31
0.0
  0
LWPOLYLINE
  5
20D
330
1F
100
AcDbEntity
  8
0
  6
Continuous
 62
     7
370
    15
100
AcDbPolyline
 90
        9
 70
   128
 43
0.0
 10
387.3936822624
 20
444.8522045846
 10
387.2494539232
 20
444.8776408668
 10
387.1124079437
 20
444.9018030997
 10
386.9872977943
 20
444.9238642688
 10
386.8784597129
 20
444.9430569644
 10
386.789633891
 20
444.9587180849
 10
386.7238899678
 20
444.9703111883
 10
386.6835227222
 20
444.9774264927
 10
386.6699030608
 20
444.9798330303
  0
LINE
  5
20E
330
1F
100
AcDbEntity
  8
0
  6
Continuous
 62
     7
370
    15
100
AcDbLine
 10
386.6699030608
 20
444.9798330303
 30
0.0
 11
391.044943592
 21
469.7919427987
 31
0.0
  0
LWPOLYLINE
  5
20F
330
1F
100
AcDbEntity
  8
0
  6
Continuous
 62
     7
370
    15
100
AcDbPolyline
 90
        9
 70
   128
 43
0.0
 10
391.044943592
 20
469.7919427987
 10
391.0600831718
 20
469.7892680402
 10
391.1049207658
 20
469.7813629742
 10
391.1777278394
 20
469.7685256238
 10
391.2757029742
 20
469.751255178
 10
391.3950910777
 20
469.7301998373
 10
391.5313025922
 20
469.706186616
 10
391.6790923089
 20
469.6801244851
 10
391.8327977866
 20
469.6530192729
  0
LINE
  5
210
330
1F
100
AcDbEntity
  8
0
  6
Continuous
 62
     7
370
    15
100
AcDbLine
 10
391.8327977866
 20
469.6530192729
 30
0.0
 11
387.0074739665
 21
442.2872230049
 31
0.0
  0
LINE
  5
211
330
1F
100
AcDbEntity
  8
0
  6
Continuous
 62
     7
370
    15
100
AcDbLine
 10
387.0074739665
 20
442.2872230049
 30
0.0
 11
387.0600303621
 21
442.9599731799
 31
0.0
  0
LWPOLYLINE
  5
212
330
1F
100
AcDbEntity
  8
0
  6
Continuous
 62
     7
370
    15
100
AcDbPolyline
 90
        5
 70
   128
 43
0.0
 10
389.8922493667
 20
476.6802653308
 10
389.6387806148
 20
477.3766710992
 10
389.45521321
 20
477.8809859987
 10
389.3440803499
 20
478.1863405939
 10
389.3068572492
 20
478.288592362
  0
LWPOLYLINE
  5
213
330
1F
100
AcDbEntity
  8
0
  6
Continuous
 62
     7
370
    15
100
AcDbPolyline
 90
        5
 70
   128
 43
0.0
 10
390.6518658609
 20
476.9322514172
 10
390.3950294465
 20
477.6379257079
 10
390.2090033502
 20
478.1490429874
 10
390.0963356704
 20
478.4585624571
 10
390.0586208314
 20
478.5622074838
  0
LINE
  5
214
330
1F
100
AcDbEntity
  8
0
  6
Continuous
 62
     7
370
    15
100
AcDbLine
 10
390.8739676685
 20
476.577812397
 30
0.0
 11
390.6518658609
 21
476.9322514172
 31
0.0
  0
LINE
  5
215
330
1F
100
AcDbEntity
  8
0
  6
Continuous
 62
     7
370
    15
100
AcDbLine
 10
390.7917728633
 20
476.5478908654
 30
0.0
 11
390.8739676685
 21
476.577812397
 31
0.0
  0
SPLINE
  5
216
330
1F
100
AcDbEntity
  8
0
  6
Continuous
 62
     7
370
    15
100
AcDbSpline
210
0.0
220
0.0
230
1.0
 70
     8
 71
     3
 72
    12
 73
     8
 74
     0
 42
0.00000001
 43
0.00000001
 40
0.0
 40
0.0
 40
0.0
 40
0.0
 40
0.251021990599481
 40
0.5023977458077202
 40
0.7402765908566765
 40
0.9473178514528033
 40
1.0
 40
1.0
 40
1.0
 40
1.0
 10
389.8922493666899
 20
476.6802653308382
 30
0.0
 10
389.9199581640184
 20
476.6359476919573
 30
0.0
 10
389.9754148086082
 20
476.5472499574676
 30
0.0
 10
390.182413374216
 20
476.4722557263567
 30
0.0
 10
390.4438036538047
 20
476.4607666336775
 30
0.0
 10
390.6603919215543
 20
476.5024004249193
 30
0.0
 10
390.7696175907245
 20
476.5402196377569
 30
0.0
 10
390.7917728633177
 20
476.5478908653727
 30
0.0
  0
LINE
  5
217
330
1F
100
AcDbEntity
  8
0
  6
Continuous
 62
     7
370
    15
100
AcDbLine
 10
390.7917728633
 20
476.5478908654
 30
0.0
 11
391.3681050748
 21
474.9644040699
 31
0.0
  0
LWPOLYLINE
  5
218
330
1F
100
AcDbEntity
  8
0
  6
Continuous
 62
     7
370
    15
100
AcDbPolyline
 90
        9
 70
   128
 43
0.0
 10
390.6163563937
 20
474.6907889481
 10
390.6307956189
 20
474.696049058
 10
390.6735768527
 20
474.7116207715
 10
390.7430460662
 20
474.7369005914
 10
390.8365359515
 20
474.770927393
 10
390.9504553289
 20
474.812389874
 10
391.0804232568
 20
474.8597010608
 10
391.2214478463
 20
474.9110281106
 10
391.3681050748
 20
474.9644040699
  0
LINE
  5
219
330
1F
100
AcDbEntity
  8
0
  6
Continuous
 62
     7
370
    15
100
AcDbLine
 10
390.6163563937
 20
474.6907889481
 30
0.0
 11
389.8922493667
 21
476.6802653308
 31
0.0
  0
ARC
  5
21A
330
1F
100
AcDbEntity
  8
0
  6
Continuous
 62
     7
370
    15
100
AcDbCircle
 10
391.1968693595
 20
447.7511989864
 30
0.0
 40
1.599999999999982
100
AcDbArc
 50
347.034367059
 51
204.5950707184
  0
ARC
  5
21B
330
1F
100
AcDbEntity
  8
0
  6
Continuous
 62
     7
370
    15
100
AcDbCircle
 10
391.7095783248
 20
475.7742729223
 30
0.0
 40
0.5
100
AcDbArc
 50
36.8410865503
 51
90.0
  0
ARC
  5
21C
330
1F
100
AcDbEntity
  8
0
  6
Continuous
 62
     7
370
    15
100
AcDbCircle
 10
384.5068638534
 20
470.3778941139
 30
0.0
 40
9.5
100
AcDbArc
 50
0.0
 51
36.8410865502
  0
LINE
  5
21D
330
1F
100
AcDbEntity
  8
0
  6
Continuous
 62
     7
370
    15
100
AcDbLine
 10
394.0068623037
 20
470.3778937097
 30
0.0
 11
394.0068623037
 21
442.3522069688
 31
0.0
  0
ARC
  5
21E
330
1F
100
AcDbEntity
  8
0
  6
Continuous
 62
     7
370
    15
100
AcDbCircle
 10
381.6892768129
 20
471.4415985362
 30
0.0
 40
10.30000000000013
100
AcDbArc
 50
350.0
 51
20.0
  0
ARC
  5
21F
330
1F
100
AcDbEntity
  8
0
  6
Continuous
 62
     7
370
    15
100
AcDbCircle
 10
391.5915657792
 20
477.2742729223
 30
0.0
 40
1.0
100
AcDbArc
 50
224.1440002858
 51
270.0
  0
LINE
  5
220
330
1F
100
AcDbEntity
  8
0
  6
Continuous
 62
     7
370
    15
100
AcDbLine
 10
391.5915628881
 20
476.2742757435
 30
0.0
 11
391.7095800847
 21
476.2742757435
 31
0.0
  0
LWPOLYLINE
  5
221
330
1F
100
AcDbEntity
  8
0
  6
Continuous
 62
     7
370
    15
100
AcDbPolyline
 90
        3
 70
   128
 43
0.0
 10
394.0068623037
 20
442.3522069688
 10
393.7982460469
 20
441.1619245644
 10
393.4420784921
 20
440.4457673069
  0
ARC
  5
222
330
1F
100
AcDbEntity
  8
0
  6
Continuous
 62
     7
370
    15
100
AcDbCircle
 10
390.5068638534
 20
442.3522080679
 30
0.0
 40
3.500000000000006
100
AcDbArc
 50
181.0639402281
 51
271.3221928089
  0
ARC
  5
223
330
1F
100
AcDbEntity
  8
0
  6
Continuous
 62
     7
370
    15
100
AcDbCircle
 10
381.6892768129
 20
471.4415985362
 30
0.0
 40
9.500000000000318
100
AcDbArc
 50
350.0
 51
20.0
  0
ARC
  5
224
330
1F
100
AcDbEntity
  8
0
  6
Continuous
 62
     7
370
    15
100
AcDbCircle
 10
391.1004816468
 20
443.0497035947
 30
0.0
 40
4.698428302688258
100
AcDbArc
 50
170.0
 51
264.3261771657
  0
LINE
  5
225
330
1F
100
AcDbEntity
  8
0
  6
Continuous
 62
     7
370
    15
100
AcDbLine
 10
386.6699030608
 20
444.9798330303
 30
0.0
 11
386.4734312505
 21
443.8655763503
 31
0.0
  0
LINE
  5
226
330
1F
100
AcDbEntity
  8
0
  6
Continuous
 62
     7
370
    15
100
AcDbLine
 10
410.506858489
 20
546.5622083853
 30
0.0
 11
410.506858489
 21
561.5622080501
 31
0.0
  0
LINE
  5
227
330
1F
100
AcDbEntity
  8
0
  6
Continuous
 62
     7
370
    15
100
AcDbLine
 10
410.506858489
 20
546.5622083853
 30
0.0
 11
395.5068578929
 21
546.5622083853
 31
0.0
  0
ARC
  5
228
330
1F
100
AcDbEntity
  8
0
  6
Continuous
 62
     7
370
    15
100
AcDbCircle
 10
410.5068638534
 20
546.5622080679
 30
0.0
 40
15.0
100
AcDbArc
 50
90.0
 51
180.0
  0
LINE
  5
229
330
1F
100
AcDbEntity
  8
0
  6
Continuous
 62
     7
370
    15
100
AcDbLine
 10
680.5068692178
 20
546.5622083853
 30
0.0
 11
695.5068698138
 21
546.5622083853
 31
0.0
  0
LINE
  5
22A
330
1F
100
AcDbEntity
  8
0
  6
Continuous
 62
     7
370
    15
100
AcDbLine
 10
680.5068692178
 20
546.5622083853
 30
0.0
 11
680.5068692178
 21
561.5622080501
 31
0.0
  0
ARC
  5
22B
330
1F
100
AcDbEntity
  8
0
  6
Continuous
 62
     7
370
    15
100
AcDbCircle
 10
680.5068638534
 20
546.5622080679
 30
0.0
 40
15.0
100
AcDbArc
 50
0.0
 51
90.0
  0
LINE
  5
22C
330
1F
100
AcDbEntity
  8
0
  6
Continuous
 62
     7
370
    15
100
AcDbLine
 10
680.5068692178
 20
561.5622080501
 30
0.0
 11
410.506858489
 21
561.5622080501
 31
0.0
  0
LINE
  5
22D
330
1F
100
AcDbEntity
  8
0
  6
Continuous
 62
     7
370
    15
100
AcDbLine
 10
680.5068692178
 20
546.5622083853
 30
0.0
 11
410.506858489
 21
546.5622083853
 31
0.0
  0
LINE
  5
22E
330
1F
100
AcDbEntity
  8
0
  6
Continuous
 62
     7
370
    15
100
AcDbLine
 10
410.506858489
 20
425.562211835
 30
0.0
 11
410.506858489
 21
546.5622083853
 31
0.0
  0
LINE
  5
22F
330
1F
100
AcDbEntity
  8
0
  6
Continuous
 62
     7
370
    15
100
AcDbLine
 10
410.506858489
 20
425.562211835
 30
0.0
 11
395.5068578929
 21
425.562211835
 31
0.0
  0
LINE
  5
230
330
1F
100
AcDbEntity
  8
0
  6
Continuous
 62
     7
370
    15
100
AcDbLine
 10
395.5068578929
 20
425.562211835
 30
0.0
 11
395.5068578929
 21
546.5622083853
 31
0.0
  0
LINE
  5
231
330
1F
100
AcDbEntity
  8
0
  6
Continuous
 62
     7
370
    15
100
AcDbLine
 10
695.5068698138
 20
425.562211835
 30
0.0
 11
695.5068698138
 21
546.5622083853
 31
0.0
  0
LINE
  5
232
330
1F
100
AcDbEntity
  8
0
  6
Continuous
 62
     7
370
    15
100
AcDbLine
 10
695.5068698138
 20
425.562211835
 30
0.0
 11
680.5068692178
 21
425.562211835
 31
0.0
  0
LINE
  5
233
330
1F
100
AcDbEntity
  8
0
  6
Continuous
 62
     7
370
    15
100
AcDbLine
 10
680.5068692178
 20
425.562211835
 30
0.0
 11
680.5068692178
 21
546.5622083853
 31
0.0
  0
LINE
  5
234
330
1F
100
AcDbEntity
  8
0
  6
Continuous
 62
     7
370
    15
100
AcDbLine
 10
415.5068686218
 20
445.5622076626
 30
0.0
 11
415.5068686218
 21
541.5622084971
 31
0.0
  0
LINE
  5
235
330
1F
100
AcDbEntity
  8
0
  6
Continuous
 62
     7
370
    15
100
AcDbLine
 10
415.5068686218
 20
445.5622076626
 30
0.0
 11
675.506859085
 21
445.5622076626
 31
0.0
  0
LINE
  5
236
330
1F
100
AcDbEntity
  8
0
  6
Continuous
 62
     7
370
    15
100
AcDbLine
 10
675.506859085
 20
541.5622084971
 30
0.0
 11
675.506859085
 21
445.5622076626
 31
0.0
  0
LINE
  5
237
330
1F
100
AcDbEntity
  8
0
  6
Continuous
 62
     7
370
    15
100
AcDbLine
 10
675.506859085
 20
541.5622084971
 30
0.0
 11
415.5068686218
 21
541.5622084971
 31
0.0
  0
LINE
  5
238
330
1F
100
AcDbEntity
  8
0
  6
Continuous
 62
     7
370
    15
100
AcDbLine
 10
410.506858489
 20
425.562211835
 30
0.0
 11
680.5068692178
 21
425.562211835
 31
0.0
  0
LINE
  5
239
330
1F
100
AcDbEntity
  8
0
  6
Continuous
 62
     7
370
    15
100
AcDbLine
 10
415.5068686218
 20
421.5622037287
 30
0.0
 11
415.5068686218
 21
425.562211835
 31
0.0
  0
LINE
  5
23A
330
1F
100
AcDbEntity
  8
0
  6
Continuous
 62
     7
370
    15
100
AcDbLine
 10
400.5068680257
 20
421.5622037287
 30
0.0
 11
400.5068680257
 21
425.562211835
 31
0.0
  0
LINE
  5
23B
330
1F
100
AcDbEntity
  8
0
  6
Continuous
 62
     7
370
    15
100
AcDbLine
 10
690.5068596811
 20
421.5622037287
 30
0.0
 11
690.5068596811
 21
425.562211835
 31
0.0
  0
LINE
  5
23C
330
1F
100
AcDbEntity
  8
0
  6
Continuous
 62
     7
370
    15
100
AcDbLine
 10
675.506859085
 20
421.5622037287
 30
0.0
 11
675.506859085
 21
425.562211835
 31
0.0
  0
LINE
  5
23D
330
1F
100
AcDbEntity
  8
0
  6
Continuous
 62
     7
370
    15
100
AcDbLine
 10
695.5068698138
 20
425.562211835
 30
0.0
 11
696.1741885156
 21
425.562211835
 31
0.0
  0
ARC
  5
23E
330
1F
100
AcDbEntity
  8
0
  6
Continuous
 62
     7
370
    15
100
AcDbCircle
 10
696.1741816015
 20
426.0622080679
 30
0.0
 40
0.5000000000000051
100
AcDbArc
 50
270.0
 51
332.720387264
  0
ARC
  5
23F
330
1F
100
AcDbEntity
  8
0
  6
Continuous
 62
     7
370
    15
100
AcDbCircle
 10
695.9447149881
 20
421.0622080679
 30
0.0
 40
0.5000000000000568
100
AcDbArc
 50
22.0243128371
 51
90.0
  0
ARC
  5
240
330
1F
100
AcDbEntity
  8
0
  6
Continuous
 62
     7
370
    15
100
AcDbCircle
 10
701.5068638534
 20
423.3122080679
 30
0.0
 40
5.500000000000163
100
AcDbArc
 50
202.024312837
 51
152.720387264
  0
LINE
  5
241
330
1F
100
AcDbEntity
  8
0
  6
Continuous
 62
     7
370
    15
100
AcDbLine
 10
695.9447106332
 20
421.5622037287
 30
0.0
 11
695.5068698138
 21
421.5622037287
 31
0.0
  0
LINE
  5
242
330
1F
100
AcDbEntity
  8
0
  6
Continuous
 62
     7
370
    15
100
AcDbLine
 10
395.2068677158
 20
444.7622090216
 30
0.0
 11
395.5068578929
 21
444.7632670041
 31
0.0
  0
LINE
  5
243
330
1F
100
AcDbEntity
  8
0
  6
Continuous
 62
     7
370
    15
100
AcDbLine
 10
395.5068578929
 20
446.7622056242
 30
0.0
 11
395.2068677158
 21
446.7622056242
 31
0.0
  0
LINE
  5
244
330
1F
100
AcDbEntity
  8
0
  6
Continuous
 62
     7
370
    15
100
AcDbLine
 10
395.2068677158
 20
444.7622090216
 30
0.0
 11
395.2068677158
 21
446.7622056242
 31
0.0
  0
LINE
  5
245
330
1F
100
AcDbEntity
  8
0
  6
Continuous
 62
     7
370
    15
100
AcDbLine
 10
395.2068677158
 20
438.5622083779
 30
0.0
 11
395.2068677158
 21
444.7622090216
 31
0.0
  0
LINE
  5
246
330
1F
100
AcDbEntity
  8
0
  6
Continuous
 62
     7
370
    15
100
AcDbLine
 10
395.5068578929
 20
438.5622083779
 30
0.0
 11
395.2068677158
 21
438.5622083779
 31
0.0
  0
ARC
  5
247
330
1F
100
AcDbEntity
  8
0
  6
Continuous
 62
     7
370
    15
100
AcDbCircle
 10
390.3068638534
 20
441.6622080679
 30
0.0
 40
3.100000000000013
100
AcDbArc
 50
192.3149210922
 51
270.0
  0
LINE
  5
248
330
1F
100
AcDbEntity
  8
0
  6
Continuous
 62
     7
370
    15
100
AcDbLine
 10
395.2068677158
 20
444.7622090216
 30
0.0
 11
394.0068623037
 21
444.7622090216
 31
0.0
  0
LINE
  5
249
330
1F
100
AcDbEntity
  8
0
  6
Continuous
 62
     7
370
    15
100
AcDbLine
 10
390.3068592757
 20
438.5622083779
 30
0.0
 11
390.6169971437
 21
438.5622083779
 31
0.0
  0
LINE
  5
24A
330
1F
100
AcDbEntity
  8
0
  6
Continuous
 62
     7
370
    15
100
AcDbLine
 10
393.6322471113
 20
438.5622083779
 30
0.0
 11
395.2068677158
 21
438.5622083779
 31
0.0
  0
LINE
  5
24B
330
1F
100
AcDbEntity
  8
0
  6
Continuous
 62
     7
370
    15
100
AcDbLine
 10
395.2068677158
 20
446.7622056242
 30
0.0
 11
395.2068677158
 21
470.8122104044
 31
0.0
  0
LINE
  5
24C
330
1F
100
AcDbEntity
  8
0
  6
Continuous
 62
     7
370
    15
100
AcDbLine
 10
395.2068677158
 20
477.5622054573
 30
0.0
 11
395.2068677158
 21
470.8122104044
 31
0.0
  0
LINE
  5
24D
330
1F
100
AcDbEntity
  8
0
  6
Continuous
 62
     7
370
    15
100
AcDbLine
 10
395.106866023
 20
470.5622061725
 30
0.0
 11
395.106866023
 21
476.5622108813
 31
0.0
  0
LINE
  5
24E
330
1F
100
AcDbEntity
  8
0
  6
Continuous
 62
     7
370
    15
100
AcDbLine
 10
395.106866023
 20
447.5622117157
 30
0.0
 11
395.106866023
 21
453.5622089739
 31
0.0
  0
LINE
  5
24F
330
1F
100
AcDbEntity
  8
0
  6
Continuous
 62
     7
370
    15
100
AcDbLine
 10
394.0068623037
 20
462.9190206166
 30
0.0
 11
395.2068677158
 21
462.5974833603
 31
0.0
  0
LINE
  5
250
330
1F
100
AcDbEntity
  8
0
  6
Continuous
 62
     7
370
    15
100
AcDbLine
 10
395.2068677158
 20
461.5622102852
 30
0.0
 11
394.0068623037
 21
461.8837475415
 31
0.0
  0
LINE
  5
251
330
1F
100
AcDbEntity
  8
0
  6
Continuous
 62
     8
370
    15
100
AcDbLine
 10
395.5068578929
 20
470.8122104044
 30
0.0
 11
395.2068677158
 21
470.8122104044
 31
0.0
  0
ENDSEC
  0
SECTION
  2
OBJECTS
  0
DICTIONARY
  5
C
330
0
100
AcDbDictionary
281
     1
  3
ACAD_GROUP
350
D
  3
ACAD_LAYOUT
350
1A
  3
ACAD_MLINESTYLE
350
17
  3
ACAD_PLOTSETTINGS
350
19
  3
ACAD_PLOTSTYLENAME
350
E
  0
DICTIONARY
  5
D
102
{ACAD_REACTORS
330
C
102
}
330
C
100
AcDbDictionary
281
     1
  0
DICTIONARY
  5
1A
102
{ACAD_REACTORS
330
C
102
}
330
C
100
AcDbDictionary
281
     1
  3
Layout1
350
1E
  3
Layout2
350
26
  3
Model
350
22
  0
DICTIONARY
  5
17
102
{ACAD_REACTORS
330
C
102
}
330
C
100
AcDbDictionary
281
     1
  3
Standard
350
18
  0
DICTIONARY
  5
19
102
{ACAD_REACTORS
330
C
102
}
330
C
100
AcDbDictionary
281
     1
  0
ACDBDICTIONARYWDFLT
  5
E
102
{ACAD_REACTORS
330
C
102
}
330
C
100
AcDbDictionary
281
     1
  3
Normal
350
F
100
AcDbDictionaryWithDefault
340
F
  0
LAYOUT
  5
1E
102
{ACAD_REACTORS
330
1A
102
}
330
1A
100
AcDbPlotSettings
  1

  2
none_device
  4

  6

 40
0.0
 41
0.0
 42
0.0
 43
0.0
 44
0.0
 45
0.0
 46
0.0
 47
0.0
 48
0.0
 49
0.0
140
0.0
141
0.0
142
1.0
143
1.0
 70
   688
 72
     0
 73
     0
 74
     5
  7

 75
    16
147
1.0
148
0.0
149
0.0
100
AcDbLayout
  1
Layout1
 70
     1
 71
     1
 10
0.0
 20
0.0
 11
420.0
 21
297.0
 12
0.0
 22
0.0
 32
0.0
 14
1.0000000000E+20
 24
1.0000000000E+20
 34
1.0000000000E+20
 15
-1.0000000000E+20
 25
-1.0000000000E+20
 35
-1.0000000000E+20
146
0.0
 13
0.0
 23
0.0
 33
0.0
 16
1.0
 26
0.0
 36
0.0
 17
0.0
 27
1.0
 37
0.0
 76
     0
330
1B
  0
LAYOUT
  5
26
102
{ACAD_REACTORS
330
1A
102
}
330
1A
100
AcDbPlotSettings
  1

  2
none_device
  4

  6

 40
0.0
 41
0.0
 42
0.0
 43
0.0
 44
0.0
 45
0.0
 46
0.0
 47
0.0
 48
0.0
 49
0.0
140
0.0
141
0.0
142
1.0
143
1.0
 70
   688
 72
     0
 73
     0
 74
     5
  7

 75
    16
147
1.0
148
0.0
149
0.0
100
AcDbLayout
  1
Layout2
 70
     1
 71
     2
 10
0.0
 20
0.0
 11
0.0
 21
0.0
 12
0.0
 22
0.0
 32
0.0
 14
0.0
 24
0.0
 34
0.0
 15
0.0
 25
0.0
 35
0.0
146
0.0
 13
0.0
 23
0.0
 33
0.0
 16
1.0
 26
0.0
 36
0.0
 17
0.0
 27
1.0
 37
0.0
 76
     0
330
23
  0
LAYOUT
  5
22
102
{ACAD_REACTORS
330
1A
102
}
330
1A
100
AcDbPlotSettings
  1

  2
none_device
  4

  6

 40
0.0
 41
0.0
 42
0.0
 43
0.0
 44
0.0
 45
0.0
 46
0.0
 47
0.0
 48
0.0
 49
0.0
140
0.0
141
0.0
142
1.0
143
1.0
 70
  1712
 72
     0
 73
     0
 74
     0
  7

 75
     0
147
1.0
148
0.0
149
0.0
100
AcDbLayout
  1
Model
 70
     1
 71
     0
 10
0.0
 20
0.0
 11
840.0
 21
594.0
 12
0.0
 22
0.0
 32
0.0
 14
0.0
 24
0.0
 34
0.0
 15
840.0
 25
594.0
 35
0.0
146
0.0
 13
0.0
 23
0.0
 33
0.0
 16
1.0
 26
0.0
 36
0.0
 17
0.0
 27
1.0
 37
0.0
 76
     0
330
1F
331
29
  0
MLINESTYLE
  5
18
102
{ACAD_REACTORS
330
17
102
}
330
17
100
AcDbMlineStyle
  2
Standard
 70
     0
  3

 62
   256
 51
90.0
 52
90.0
 71
     2
 49
0.5
 62
   256
  6
BYLAYER
 49
-0.5
 62
   256
  6
BYLAYER
  0
ACDBPLACEHOLDER
  5
F
102
{ACAD_REACTORS
330
E
102
}
330
E
  0
ENDSEC
  0
EOF
