  0
SECTION
  2
HEADER
  9
$ACADVER
  1
AC1015
  9
$ACADMAINTVER
 70
     6
  9
$DWGCODEPAGE
  3
DOS932
  9
$INSBASE
 10
0.0
 20
0.0
 30
0.0
  9
$EXTMIN
 10
0.0
 20
0.0
 30
0.0
  9
$EXTMAX
 10
840.0
 20
594.0
 30
0.0
  9
$LIMMIN
 10
0.0
 20
0.0
  9
$LIMMAX
 10
840.0
 20
594.0
  9
$ORTHOMODE
 70
     0
  9
$REGENMODE
 70
     1
  9
$FILLMODE
 70
     1
  9
$QTEXTMODE
 70
     0
  9
$MIRRTEXT
 70
     1
  9
$LTSCALE
 40
2.0
  9
$ATTMODE
 70
     1
  9
$TEXTSIZE
 40
7.0
  9
$TRACEWID
 40
1.0
  9
$TEXTSTYLE
  7
Standard
  9
$CLAYER
  8
0
  9
$CELTYPE
  6
ByLayer
  9
$CECOLOR
 62
   256
  9
$CELTSCALE
 40
1.0
  9
$DISPSILH
 70
     0
  9
$DIMSCALE
 40
1.0
  9
$DIMASZ
 40
6.0
  9
$DIMEXO
 40
2.0
  9
$DIMDLI
 40
3.75
  9
$DIMRND
 40
0.0
  9
$DIMDLE
 40
0.0
  9
$DIMEXE
 40
2.0
  9
$DIMTP
 40
0.0
  9
$DIMTM
 40
0.0
  9
$DIMTXT
 40
7.0
  9
$DIMCEN
 40
2.5
  9
$DIMTSZ
 40
0.0
  9
$DIMTOL
 70
     0
  9
$DIMLIM
 70
     0
  9
$DIMTIH
 70
     1
  9
$DIMTOH
 70
     1
  9
$DIMSE1
 70
     0
  9
$DIMSE2
 70
     0
  9
$DIMTAD
 70
     1
  9
$DIMZIN
 70
     0
  9
$DIMBLK
  1

  9
$DIMASO
 70
     1
  9
$DIMSHO
 70
     1
  9
$DIMPOST
  1

  9
$DIMAPOST
  1

  9
$DIMALT
 70
     0
  9
$DIMALTD
 70
     3
  9
$DIMALTF
 40
0.0393700787
  9
$DIMLFAC
 40
1.0
  9
$DIMTOFL
 70
     1
  9
$DIMTVP
 40
0.0
  9
$DIMTIX
 70
     0
  9
$DIMSOXD
 70
     0
  9
$DIMSAH
 70
     0
  9
$DIMBLK1
  1

  9
$DIMBLK2
  1

  9
$DIMSTYLE
  2
ISO-25
  9
$DIMCLRD
 70
     0
  9
$DIMCLRE
 70
     0
  9
$DIMCLRT
 70
     0
  9
$DIMTFAC
 40
1.0
  9
$DIMGAP
 40
3.048
  9
$DIMJUST
 70
     0
  9
$DIMSD1
 70
     0
  9
$DIMSD2
 70
     0
  9
$DIMTOLJ
 70
     0
  9
$DIMTZIN
 70
     0
  9
$DIMALTZ
 70
     0
  9
$DIMALTTZ
 70
     0
  9
$DIMUPT
 70
     0
  9
$DIMDEC
 70
     1
  9
$DIMTDEC
 70
     1
  9
$DIMALTU
 70
     2
  9
$DIMALTTD
 70
     3
  9
$DIMTXSTY
  7
Standard
  9
$DIMAUNIT
 70
     0
  9
$DIMADEC
 70
     2
  9
$DIMALTRND
 40
0.0
  9
$DIMAZIN
 70
     0
  9
$DIMDSEP
 70
    44
  9
$DIMATFIT
 70
     3
  9
$DIMFRAC
 70
     0
  9
$DIMLDRBLK
  1

  9
$DIMLUNIT
 70
     2
  9
$DIMLWD
 70
    -2
  9
$DIMLWE
 70
    -2
  9
$DIMTMOVE
 70
     0
  9
$LUNITS
 70
     2
  9
$LUPREC
 70
     1
  9
$SKETCHINC
 40
1.0
  9
$FILLETRAD
 40
10.0
  9
$AUNITS
 70
     0
  9
$AUPREC
 70
     2
  9
$MENU
  1
.
  9
$ELEVATION
 40
0.0
  9
$PELEVATION
 40
0.0
  9
$THICKNESS
 40
0.0
  9
$LIMCHECK
 70
     0
  9
$CHAMFERA
 40
10.0
  9
$CHAMFERB
 40
10.0
  9
$CHAMFERC
 40
20.0
  9
$CHAMFERD
 40
0.0
  9
$SKPOLY
 70
     0
  9
$TDCREATE
 40
2460440.602882222
  9
$TDUCREATE
 40
2460440.227882222
  9
$TDUPDATE
 40
2460440.602882234
  9
$TDUUPDATE
 40
2460440.227882234
  9
$TDINDWG
 40
0.0000000116
  9
$TDUSRTIMER
 40
0.0000000116
  9
$USRTIMER
 70
     1
  9
$ANGBASE
 50
0.0
  9
$ANGDIR
 70
     0
  9
$PDMODE
 70
     0
  9
$PDSIZE
 40
-1.0
  9
$PLINEWID
 40
0.0
  9
$SPLFRAME
 70
     0
  9
$SPLINETYPE
 70
     6
  9
$SPLINESEGS
 70
     8
  9
$HANDSEED
  5
253
  9
$SURFTAB1
 70
     6
  9
$SURFTAB2
 70
     6
  9
$SURFTYPE
 70
     6
  9
$SURFU
 70
     6
  9
$SURFV
 70
     6
  9
$UCSBASE
  2

  9
$UCSNAME
  2

  9
$UCSORG
 10
0.0
 20
0.0
 30
0.0
  9
$UCSXDIR
 10
1.0
 20
0.0
 30
0.0
  9
$UCSYDIR
 10
0.0
 20
1.0
 30
0.0
  9
$UCSORTHOREF
  2

  9
$UCSORTHOVIEW
 70
     0
  9
$UCSORGTOP
 10
0.0
 20
0.0
 30
0.0
  9
$UCSORGBOTTOM
 10
0.0
 20
0.0
 30
0.0
  9
$UCSORGLEFT
 10
0.0
 20
0.0
 30
0.0
  9
$UCSORGRIGHT
 10
0.0
 20
0.0
 30
0.0
  9
$UCSORGFRONT
 10
0.0
 20
0.0
 30
0.0
  9
$UCSORGBACK
 10
0.0
 20
0.0
 30
0.0
  9
$PUCSBASE
  2

  9
$PUCSNAME
  2

  9
$PUCSORG
 10
0.0
 20
0.0
 30
0.0
  9
$PUCSXDIR
 10
1.0
 20
0.0
 30
0.0
  9
$PUCSYDIR
 10
0.0
 20
1.0
 30
0.0
  9
$PUCSORTHOREF
  2

  9
$PUCSORTHOVIEW
 70
     0
  9
$PUCSORGTOP
 10
0.0
 20
0.0
 30
0.0
  9
$PUCSORGBOTTOM
 10
0.0
 20
0.0
 30
0.0
  9
$PUCSORGLEFT
 10
0.0
 20
0.0
 30
0.0
  9
$PUCSORGRIGHT
 10
0.0
 20
0.0
 30
0.0
  9
$PUCSORGFRONT
 10
0.0
 20
0.0
 30
0.0
  9
$PUCSORGBACK
 10
0.0
 20
0.0
 30
0.0
  9
$USERI1
 70
     0
  9
$USERI2
 70
     0
  9
$USERI3
 70
     0
  9
$USERI4
 70
     0
  9
$USERI5
 70
     0
  9
$USERR1
 40
0.0
  9
$USERR2
 40
0.0
  9
$USERR3
 40
0.0
  9
$USERR4
 40
0.0
  9
$USERR5
 40
0.0
  9
$WORLDVIEW
 70
     1
  9
$SHADEDGE
 70
     3
  9
$SHADEDIF
 70
    70
  9
$TILEMODE
 70
     1
  9
$MAXACTVP
 70
    64
  9
$PINSBASE
 10
0.0
 20
0.0
 30
0.0
  9
$PLIMCHECK
 70
     0
  9
$PEXTMIN
 10
1.0000000000E+20
 20
1.0000000000E+20
 30
1.0000000000E+20
  9
$PEXTMAX
 10
-1.0000000000E+20
 20
-1.0000000000E+20
 30
-1.0000000000E+20
  9
$PLIMMIN
 10
0.0
 20
0.0
  9
$PLIMMAX
 10
420.0
 20
297.0
  9
$UNITMODE
 70
     0
  9
$VISRETAIN
 70
     1
  9
$PLINEGEN
 70
     0
  9
$PSLTSCALE
 70
     1
  9
$TREEDEPTH
 70
  3020
  9
$CMLSTYLE
  2
Standard
  9
$CMLJUST
 70
     0
  9
$CMLSCALE
 40
20.0
  9
$PROXYGRAPHICS
 70
     1
  9
$MEASUREMENT
 70
     1
  9
$CELWEIGHT
370
    -1
  9
$ENDCAPS
280
     0
  9
$JOINSTYLE
280
     0
  9
$LWDISPLAY
290
     1
  9
$INSUNITS
 70
     4
  9
$HYPERLINKBASE
  1

  9
$STYLESHEET
  1

  9
$XEDIT
290
     1
  9
$CEPSNTYPE
380
     0
  9
$PSTYLEMODE
290
     1
  9
$FINGERPRINTGUID
  2
{1288B67E-E2EA-417B-8FB1-768E8474A041}
  9
$VERSIONGUID
  2
{FAEB1C32-E019-11D5-929B-00C0DF256EC4}
  9
$EXTNAMES
290
     1
  9
$PSVPSCALE
 40
0.0
  9
$OLESTARTUP
290
     0
  0
ENDSEC
  0
SECTION
  2
CLASSES
  0
CLASS
  1
ACDBDICTIONARYWDFLT
  2
AcDbDictionaryWithDefault
  3
ObjectDBX Classes
 90
        0
280
     0
281
     0
  0
CLASS
  1
VISUALSTYLE
  2
AcDbVisualStyle
  3
ObjectDBX Classes
 90
     4095
280
     0
281
     0
  0
CLASS
  1
MATERIAL
  2
AcDbMaterial
  3
ObjectDBX Classes
 90
     1153
280
     0
281
     0
  0
CLASS
  1
ACDBPLACEHOLDER
  2
AcDbPlaceHolder
  3
ObjectDBX Classes
 90
        0
280
     0
281
     0
  0
CLASS
  1
LAYOUT
  2
AcDbLayout
  3
ObjectDBX Classes
 90
        0
280
     0
281
     0
  0
ENDSEC
  0
SECTION
  2
TABLES
  0
TABLE
  2
VPORT
  5
8
330
0
100
AcDbSymbolTable
 70
     1
  0
VPORT
  5
29
330
8
100
AcDbSymbolTableRecord
100
AcDbViewportTableRecord
  2
*Active
 70
     0
 10
0.0
 20
0.0
 11
1.0
 21
1.0
 12
420.0
 22
297.0
 13
0.0
 23
0.0
 14
10.0
 24
10.0
 15
10.0
 25
10.0
 16
0.0
 26
0.0
 36
1.0
 17
0.0
 27
0.0
 37
0.0
 40
594.0
 41
1.4141414141
 42
50.0
 43
0.0
 44
0.0
 50
0.0
 51
0.0
 71
     0
 72
  2000
 73
     1
 74
     3
 75
     0
 76
     0
 77
     0
 78
     0
281
     0
 65
     1
110
0.0
120
0.0
130
0.0
111
1.0
121
0.0
131
0.0
112
0.0
122
1.0
132
0.0
 79
     0
146
0.0
  0
ENDTAB
  0
TABLE
  2
LTYPE
  5
5
330
0
100
AcDbSymbolTable
 70
     6
  0
LTYPE
  5
14
330
5
100
AcDbSymbolTableRecord
100
AcDbLinetypeTableRecord
  2
ByBlock
 70
     0
  3

 72
    65
 73
     0
 40
0.0
  0
LTYPE
  5
15
330
5
100
AcDbSymbolTableRecord
100
AcDbLinetypeTableRecord
  2
ByLayer
 70
     0
  3

 72
    65
 73
     0
 40
0.0
  0
LTYPE
  5
16
330
5
100
AcDbSymbolTableRecord
100
AcDbLinetypeTableRecord
  2
Continuous
 70
     0
  3
Solid line
 72
    65
 73
     0
 40
0.0
  0
LTYPE
  5
3F
330
5
100
AcDbSymbolTableRecord
100
AcDbLinetypeTableRecord
  2
HIDDEN
 70
     0
  3
Hidden __ __ __ __ __ __ __ __ __ __ __ __ __ __
 72
    65
 73
     2
 40
1.905
 49
1.27
 74
     0
 49
-0.635
 74
     0
  0
LTYPE
  5
40
330
5
100
AcDbSymbolTableRecord
100
AcDbLinetypeTableRecord
  2
PHANTOM
 70
     0
  3
Phantom ______  __  __  ______  __  __  ______
 72
    65
 73
     6
 40
12.7
 49
6.35
 74
     0
 49
-1.27
 74
     0
 49
1.27
 74
     0
 49
-1.27
 74
     0
 49
1.27
 74
     0
 49
-1.27
 74
     0
  0
LTYPE
  5
41
330
5
100
AcDbSymbolTableRecord
100
AcDbLinetypeTableRecord
  2
CENTER
 70
     0
  3
Center ____ _ ____ _ ____ _ ____ _ ____ _ ____
 72
    65
 73
     4
 40
10.16
 49
6.35
 74
     0
 49
-1.27
 74
     0
 49
1.27
 74
     0
 49
-1.27
 74
     0
  0
LTYPE
  5
42
330
5
100
AcDbSymbolTableRecord
100
AcDbLinetypeTableRecord
  2
CENTERX2
 70
     0
  3
Center (2x) ________  __  ________  __  _____
 72
    65
 73
     4
 40
20.32
 49
12.7
 74
     0
 49
-2.54
 74
     0
 49
2.54
 74
     0
 49
-2.54
 74
     0
  0
LTYPE
  5
43
330
5
100
AcDbSymbolTableRecord
100
AcDbLinetypeTableRecord
  2
DOT2
 70
     0
  3
Dot (.5x) ........................................
 72
    65
 73
     2
 40
0.635
 49
0.0
 74
     0
 49
-0.635
 74
     0
  0
ENDTAB
  0
TABLE
  2
LAYER
  5
2
330
0
100
AcDbSymbolTable
 70
     1
  0
LAYER
  5
10
330
2
100
AcDbSymbolTableRecord
100
AcDbLayerTableRecord
  2
0
 70
     0
 62
     7
  6
Continuous
370
    -3
390
F
  0
ENDTAB
  0
TABLE
  2
STYLE
  5
3
330
0
100
AcDbSymbolTable
 70
     2
  0
STYLE
  5
11
330
3
100
AcDbSymbolTableRecord
100
AcDbTextStyleTableRecord
  2
Standard
 70
     0
 40
0.0
 41
1.0
 50
0.0
 71
     0
 42
2.5
  3
txt
  4
bigfont
  0
STYLE
  5
44
330
3
100
AcDbSymbolTableRecord
100
AcDbTextStyleTableRecord
  2
SLDTEXTSTYLE0
 70
     0
 40
0.0
 41
0.7
 50
0.0
 71
     0
 42
0.2
  3
TXT
  4
bigfont
  0
ENDTAB
  0
TABLE
  2
VIEW
  5
6
330
0
100
AcDbSymbolTable
 70
     0
  0
ENDTAB
  0
TABLE
  2
UCS
  5
7
330
0
100
AcDbSymbolTable
 70
     0
  0
ENDTAB
  0
TABLE
  2
APPID
  5
9
330
0
100
AcDbSymbolTable
 70
     1
  0
APPID
  5
12
330
9
100
AcDbSymbolTableRecord
100
AcDbRegAppTableRecord
  2
ACAD
 70
     0
  0
ENDTAB
  0
TABLE
  2
DIMSTYLE
  5
A
330
0
100
AcDbSymbolTable
 70
     1
100
AcDbDimStyleTable
  0
DIMSTYLE
105
27
330
A
100
AcDbSymbolTableRecord
100
AcDbDimStyleTableRecord
  2
ISO-25
 70
     0
 41
2.5
 42
0.625
 43
3.75
 44
1.25
 73
     0
 74
     0
 77
     1
 78
     8
140
2.5
141
2.5
143
0.0393700787
147
0.625
171
     3
172
     1
178
     0
271
     2
272
     2
274
     3
278
    44
283
     0
284
     8
340
11
  0
ENDTAB
  0
TABLE
  2
BLOCK_RECORD
  5
1
330
0
100
AcDbSymbolTable
 70
     1
  0
BLOCK_RECORD
  5
1F
330
1
100
AcDbSymbolTableRecord
100
AcDbBlockTableRecord
  2
*Model_Space
340
22
  0
BLOCK_RECORD
  5
1B
330
1
100
AcDbSymbolTableRecord
100
AcDbBlockTableRecord
  2
*Paper_Space
340
1E
  0
BLOCK_RECORD
  5
23
330
1
100
AcDbSymbolTableRecord
100
AcDbBlockTableRecord
  2
*Paper_Space0
340
26
  0
ENDTAB
  0
ENDSEC
  0
SECTION
  2
BLOCKS
  0
BLOCK
  5
20
330
1F
100
AcDbEntity
  8
0
100
AcDbBlockBegin
  2
*Model_Space
 70
     0
 10
0.0
 20
0.0
 30
0.0
  3
*Model_Space
  1

  0
ENDBLK
  5
21
330
1F
100
AcDbEntity
  8
0
100
AcDbBlockEnd
  0
BLOCK
  5
1C
330
1B
100
AcDbEntity
 67
     1
  8
0
100
AcDbBlockBegin
  2
*Paper_Space
 70
     0
 10
0.0
 20
0.0
 30
0.0
  3
*Paper_Space
  1

  0
ENDBLK
  5
1D
330
1B
100
AcDbEntity
 67
     1
  8
0
100
AcDbBlockEnd
  0
BLOCK
  5
24
330
23
100
AcDbEntity
  8
0
100
AcDbBlockBegin
  2
*Paper_Space0
 70
     0
 10
0.0
 20
0.0
 30
0.0
  3
*Paper_Space0
  1

  0
ENDBLK
  5
25
330
23
100
AcDbEntity
  8
0
100
AcDbBlockEnd
  0
ENDSEC
  0
SECTION
  2
ENTITIES
  0
MTEXT
  5
45
330
1F
100
AcDbEntity
  8
0
  6
Continuous
 62
     7
370
     0
100
AcDbMText
 10
192.1507430998
 20
504.2512164922
 30
0.0
 40
7.0
 41
0.0
 71
     1
 72
     1
  1
CHB-503P
  7
SLDTEXTSTYLE0
 73
     1
 44
1.0
  0
LINE
  5
46
330
1F
100
AcDbEntity
  8
0
  6
Continuous
 62
     7
370
    15
100
AcDbLine
 10
390.3474206864
 20
219.3844299102
 30
0.0
 11
390.4474223792
 21
219.3844299102
 31
0.0
  0
LINE
  5
47
330
1F
100
AcDbEntity
  8
0
  6
Continuous
 62
     7
370
    15
100
AcDbLine
 10
390.4474223792
 20
225.3844301952
 30
0.0
 11
390.3474206864
 21
225.3844301952
 31
0.0
  0
LINE
  5
48
330
1F
100
AcDbEntity
  8
0
  6
Continuous
 62
     7
370
    15
100
AcDbLine
 10
390.3474206864
 20
229.3844303852
 30
0.0
 11
390.4474223792
 21
229.3844303852
 31
0.0
  0
LINE
  5
49
330
1F
100
AcDbEntity
  8
0
  6
Continuous
 62
     7
370
    15
100
AcDbLine
 10
390.4474223792
 20
235.3844306701
 30
0.0
 11
390.3474206864
 21
235.3844306701
 31
0.0
  0
LINE
  5
4A
330
1F
100
AcDbEntity
  8
0
  6
Continuous
 62
     7
370
    15
100
AcDbLine
 10
391.6474128901
 20
238.8844303125
 30
0.0
 11
390.4474223792
 21
238.8844303125
 31
0.0
  0
LINE
  5
4B
330
1F
100
AcDbEntity
  8
0
  6
Continuous
 62
     7
370
    15
100
AcDbLine
 10
390.4474223792
 20
215.8844302678
 30
0.0
 11
391.6474128901
 21
215.8844302678
 31
0.0
  0
LINE
  5
4C
330
1F
100
AcDbEntity
  8
0
  6
Continuous
 62
     7
370
    15
100
AcDbLine
 10
803.1474198043
 20
83.384436489
 30
0.0
 11
803.1474198043
 21
118.3844329128
 31
0.0
  0
LINE
  5
4D
330
1F
100
AcDbEntity
  8
0
  6
Continuous
 62
     7
370
    15
100
AcDbLine
 10
803.1474198043
 20
336.3844276676
 30
0.0
 11
803.1474198043
 21
371.3844240913
 31
0.0
  0
LINE
  5
4E
330
1F
100
AcDbEntity
  8
0
  6
Continuous
 62
     7
370
    15
100
AcDbLine
 10
382.5426096856
 20
231.2844301844
 30
0.0
 11
382.5426096856
 21
222.684430358
 31
0.0
  0
LINE
  5
4F
330
1F
100
AcDbEntity
  8
0
  6
Continuous
 62
     7
370
    15
100
AcDbLine
 10
383.1474180161
 20
220.1844304138
 30
0.0
 11
383.1474180161
 21
219.3846841612
 31
0.0
  0
LINE
  5
50
330
1F
100
AcDbEntity
  8
0
  6
Continuous
 62
     7
370
    15
100
AcDbLine
 10
383.1474180161
 20
235.3841764191
 30
0.0
 11
383.1474180161
 21
234.5844301665
 31
0.0
  0
ARC
  5
51
330
1F
100
AcDbEntity
  8
0
  6
Continuous
 62
     7
370
    15
100
AcDbCircle
 10
386.7474158704
 20
232.5772874331
 30
0.0
 40
3.807142857143219
100
AcDbArc
 50
77.9663271603
 51
90.0
  0
ARC
  5
52
330
1F
100
AcDbEntity
  8
0
  6
Continuous
 62
     7
370
    15
100
AcDbCircle
 10
386.7474158704
 20
232.5772874331
 30
0.0
 40
3.807142857143245
100
AcDbArc
 50
90.0
 51
125.3002484399
  0
LINE
  5
53
330
1F
100
AcDbEntity
  8
0
  6
Continuous
 62
     7
370
    15
100
AcDbLine
 10
384.5474119126
 20
235.6844301605
 30
0.0
 11
384.5474119126
 21
235.3844306701
 31
0.0
  0
LINE
  5
54
330
1F
100
AcDbEntity
  8
0
  6
Continuous
 62
     7
370
    15
100
AcDbLine
 10
384.6474136054
 20
218.9844305897
 30
0.0
 11
384.6474136054
 21
218.5844303378
 31
0.0
  0
ARC
  5
55
330
1F
100
AcDbEntity
  8
0
  6
Continuous
 62
     7
370
    15
100
AcDbCircle
 10
384.8474158704
 20
219.3844302902
 30
0.0
 40
0.4000000000008299
100
AcDbArc
 50
270.0
 51
0.0
  0
LINE
  5
56
330
1F
100
AcDbEntity
  8
0
  6
Continuous
 62
     7
370
    15
100
AcDbLine
 10
385.2474088609
 20
234.5844301665
 30
0.0
 11
385.2474088609
 21
234.1344304653
 31
0.0
  0
LINE
  5
57
330
1F
100
AcDbEntity
  8
0
  6
Continuous
 62
     7
370
    15
100
AcDbLine
 10
385.2474088609
 20
220.6344301151
 30
0.0
 11
385.2474088609
 21
220.1844304138
 31
0.0
  0
SPLINE
  5
58
330
1F
100
AcDbEntity
  8
0
  6
Continuous
 62
     7
370
    15
100
AcDbSpline
210
0.0
220
0.0
230
1.0
 70
     8
 71
     3
 72
    11
 73
     7
 74
     0
 42
0.00000001
 43
0.00000001
 40
0.0
 40
0.0
 40
0.0
 40
0.0
 40
0.2262235143086493
 40
0.467948546649789
 40
0.7254888838111353
 40
0.9999999999999999
 40
0.9999999999999999
 40
0.9999999999999999
 40
0.9999999999999999
 10
387.9679287611848
 20
235.6148650208119
 30
0.0
 10
387.9707480972153
 20
235.5919657986631
 30
0.0
 10
387.9765799586912
 20
235.5445982305449
 30
0.0
 10
387.9933705057357
 20
235.2198158812068
 30
0.0
 10
388.0069631438108
 20
234.7193165053129
 30
0.0
 10
388.0074983351051
 20
234.295495272845
 30
0.0
 10
388.0077744662171
 20
234.0768253700438
 30
0.0
  0
SPLINE
  5
59
330
1F
100
AcDbEntity
  8
0
  6
Continuous
 62
     7
370
    15
100
AcDbSpline
210
0.0
220
0.0
230
1.0
 70
     8
 71
     3
 72
    12
 73
     8
 74
     0
 42
0.00000001
 43
0.00000001
 40
0.0
 40
0.0
 40
0.0
 40
0.0
 40
0.2489433810545054
 40
0.4822897574529931
 40
0.6998115288059334
 40
0.9035368986525243
 40
1.0
 40
1.0
 40
1.0
 40
1.0
 10
388.0077744662171
 20
220.5181945385042
 30
0.0
 10
388.006348590295
 20
220.3808599382093
 30
0.0
 10
388.0035861735972
 20
220.1147951375081
 30
0.0
 10
387.9926852105381
 20
219.7789931833794
 30
0.0
 10
387.9901749042708
 20
219.5458171245442
 30
0.0
 10
387.994964061947
 20
219.4257110366428
 30
0.0
 10
388.0213945644003
 20
219.4243646178224
 30
0.0
 10
388.0298877894288
 20
219.4239319571856
 30
0.0
  0
LINE
  5
5A
330
1F
100
AcDbEntity
  8
0
  6
Continuous
 62
     7
370
    15
100
AcDbLine
 10
388.0069251
 20
234.1268252851
 30
0.0
 11
388.0069251
 21
220.4681946234
 31
0.0
  0
LINE
  5
5B
330
1F
100
AcDbEntity
  8
0
  6
Continuous
 62
     7
370
    15
100
AcDbLine
 10
386.4833111703
 20
238.06471371
 30
0.0
 11
387.9706705748
 21
235.5845663035
 31
0.0
  0
LINE
  5
5C
330
1F
100
AcDbEntity
  8
0
  6
Continuous
 62
     7
370
    15
100
AcDbLine
 10
390.4474223792
 20
237.2876758957
 30
0.0
 11
389.0561307608
 21
239.6076395446
 31
0.0
  0
LINE
  5
5D
330
1F
100
AcDbEntity
  8
0
  6
Continuous
 62
     7
370
    15
100
AcDbLine
 10
388.0351628005
 20
219.2918462017
 30
0.0
 11
386.4660854279
 21
216.6754276761
 31
0.0
  0
LINE
  5
5E
330
1F
100
AcDbEntity
  8
0
  6
Continuous
 62
     7
370
    15
100
AcDbLine
 10
389.0389050185
 20
215.1325018415
 30
0.0
 11
390.4474223792
 21
217.4811846846
 31
0.0
  0
LINE
  5
5F
330
1F
100
AcDbEntity
  8
0
  6
Continuous
 62
     7
370
    15
100
AcDbLine
 10
389.076023811
 20
239.5721310088
 30
0.0
 11
388.9860655009
 21
239.6859181383
 31
0.0
  0
SPLINE
  5
60
330
1F
100
AcDbEntity
  8
0
  6
Continuous
 62
     7
370
    15
100
AcDbSpline
210
0.0
220
0.0
230
1.0
 70
     8
 71
     3
 72
    20
 73
    16
 74
     0
 42
0.00000001
 43
0.00000001
 40
0.0
 40
0.0
 40
0.0
 40
0.0
 40
0.0337804484770458
 40
0.1101067222574623
 40
0.1739284888191269
 40
0.2252741119326925
 40
0.2665365491125276
 40
0.3037745687321112
 40
0.3388585648866765
 40
0.3726399021877442
 40
0.413917672451434
 40
0.6259828182369774
 40
0.8390272848061241
 40
0.9659462447580215
 40
1.0
 40
1.0
 40
1.0
 40
1.0
 10
388.8737554489976
 20
239.8279876717928
 30
0.0
 10
388.8330946886734
 20
239.884173093409
 30
0.0
 10
388.7005617222493
 20
240.0673083947954
 30
0.0
 10
388.3907000482139
 20
240.2444841373412
 30
0.0
 10
388.003436389732
 20
240.3674451254879
 30
0.0
 10
387.6335893691985
 20
240.3822329717648
 30
0.0
 10
387.2992713597969
 20
240.3316399809936
 30
0.0
 10
387.0247871388573
 20
240.2305972080312
 30
0.0
 10
386.7972828720187
 20
240.0958748453324
 30
0.0
 10
386.5912498514347
 20
239.9197025491987
 30
0.0
 10
386.2467272524138
 20
239.4772000863885
 30
0.0
 10
386.0656384051638
 20
238.790539395242
 30
0.0
 10
385.9158378538616
 20
237.6097006537074
 30
0.0
 10
385.8607181208714
 20
236.7050582458604
 30
0.0
 10
385.8541566191323
 20
236.2904702837197
 30
0.0
 10
385.8527685343629
 20
236.2027642586831
 30
0.0
  0
SPLINE
  5
61
330
1F
100
AcDbEntity
  8
0
  6
Continuous
 62
     7
370
    15
100
AcDbSpline
210
0.0
220
0.0
230
1.0
 70
     8
 71
     3
 72
    19
 73
    15
 74
     0
 42
0.00000001
 43
0.00000001
 40
0.0
 40
0.0
 40
0.0
 40
0.0
 40
0.0102737183622543
 40
0.1295969785223779
 40
0.3268126212951054
 40
0.5525087974074913
 40
0.5858541063471573
 40
0.6186016689037054
 40
0.6529060907157258
 40
0.6960071603605987
 40
0.7523130705281952
 40
0.8223154090455866
 40
0.9054607621640426
 40
1.0
 40
1.0
 40
1.0
 40
1.0
 10
385.8499224125749
 20
218.5844303378466
 30
0.0
 10
385.8502456165833
 20
218.5572313691681
 30
0.0
 10
385.8543226470663
 20
218.2141322072713
 30
0.0
 10
385.894085068182
 20
217.3941413926838
 30
0.0
 10
386.0290869025505
 20
216.1717129520311
 30
0.0
 10
386.1194946178534
 20
215.5283461256693
 30
0.0
 10
386.4703841190872
 20
214.9882516855207
 30
0.0
 10
386.6396058615965
 20
214.8004091724278
 30
0.0
 10
386.876312929474
 20
214.6239229430891
 30
0.0
 10
387.18994232554
 20
214.4704547785018
 30
0.0
 10
387.5934283204167
 20
214.3686640206893
 30
0.0
 10
388.0792900088445
 20
214.3918266874419
 30
0.0
 10
388.6090443287285
 20
214.6021551561338
 30
0.0
 10
388.874263182724
 20
214.9239714567843
 30
0.0
 10
389.0153760849839
 20
215.0951977157596
 30
0.0
  0
LINE
  5
62
330
1F
100
AcDbEntity
  8
0
  6
Continuous
 62
     7
370
    15
100
AcDbLine
 10
803.1474198043
 20
47.3844231376
 30
0.0
 11
803.1474198043
 21
82.3844344625
 31
0.0
  0
LINE
  5
63
330
1F
100
AcDbEntity
  8
0
  6
Continuous
 62
     7
370
    15
100
AcDbLine
 10
803.1474198043
 20
372.3844261178
 30
0.0
 11
803.1474198043
 21
407.3844374427
 31
0.0
  0
LINE
  5
64
330
1F
100
AcDbEntity
  8
0
  6
Continuous
 62
     7
370
    15
100
AcDbLine
 10
800.1474137246
 20
82.3844344625
 30
0.0
 11
800.1474137246
 21
83.384436489
 31
0.0
  0
LINE
  5
65
330
1F
100
AcDbEntity
  8
0
  6
Continuous
 62
     7
370
    15
100
AcDbLine
 10
800.1474137246
 20
118.3844329128
 30
0.0
 11
800.1474137246
 21
119.3844274887
 31
0.0
  0
LINE
  5
66
330
1F
100
AcDbEntity
  8
0
  6
Continuous
 62
     7
370
    15
100
AcDbLine
 10
795.147418493
 20
119.3844274887
 30
0.0
 11
795.147418493
 21
118.3844329128
 31
0.0
  0
LINE
  5
67
330
1F
100
AcDbEntity
  8
0
  6
Continuous
 62
     7
370
    15
100
AcDbLine
 10
795.147418493
 20
83.384436489
 30
0.0
 11
795.147418493
 21
82.3844344625
 31
0.0
  0
LINE
  5
68
330
1F
100
AcDbEntity
  8
0
  6
Continuous
 62
     7
370
    15
100
AcDbLine
 10
795.147418493
 20
372.3844261178
 30
0.0
 11
795.147418493
 21
371.3844240913
 31
0.0
  0
LINE
  5
69
330
1F
100
AcDbEntity
  8
0
  6
Continuous
 62
     7
370
    15
100
AcDbLine
 10
795.147418493
 20
336.3844276676
 30
0.0
 11
795.147418493
 21
335.3844330916
 31
0.0
  0
LINE
  5
6A
330
1F
100
AcDbEntity
  8
0
  6
Continuous
 62
     7
370
    15
100
AcDbLine
 10
800.1474137246
 20
335.3844330916
 30
0.0
 11
800.1474137246
 21
336.3844276676
 31
0.0
  0
LINE
  5
6B
330
1F
100
AcDbEntity
  8
0
  6
Continuous
 62
     7
370
    15
100
AcDbLine
 10
800.1474137246
 20
371.3844240913
 30
0.0
 11
800.1474137246
 21
372.3844261178
 31
0.0
  0
LINE
  5
6C
330
1F
100
AcDbEntity
  8
0
  6
Continuous
 62
     7
370
    15
100
AcDbLine
 10
383.3474214017
 20
234.1344304653
 30
0.0
 11
383.3474214017
 21
233.8416193882
 31
0.0
  0
LINE
  5
6D
330
1F
100
AcDbEntity
  8
0
  6
Continuous
 62
     7
370
    15
100
AcDbLine
 10
383.3474214017
 20
220.9272411922
 30
0.0
 11
383.3474214017
 21
220.6344301151
 31
0.0
  0
LINE
  5
6E
330
1F
100
AcDbEntity
  8
0
  6
Continuous
 62
     7
370
    15
100
AcDbLine
 10
776.6474182546
 20
42.384427906
 30
0.0
 11
776.6474182546
 21
27.3844273099
 31
0.0
  0
LINE
  5
6F
330
1F
100
AcDbEntity
  8
0
  6
Continuous
 62
     7
370
    15
100
AcDbLine
 10
776.6474182546
 20
42.384427906
 30
0.0
 11
791.6474188506
 21
42.384427906
 31
0.0
  0
ARC
  5
70
330
1F
100
AcDbEntity
  8
0
  6
Continuous
 62
     7
370
    15
100
AcDbCircle
 10
776.6474158704
 20
42.3844302902
 30
0.0
 40
15.00000000000011
100
AcDbArc
 50
270.0
 51
0.0
  0
LINE
  5
71
330
1F
100
AcDbEntity
  8
0
  6
Continuous
 62
     7
370
    15
100
AcDbLine
 10
406.6474134862
 20
27.3844273099
 30
0.0
 11
406.6474134862
 21
42.384427906
 31
0.0
  0
LINE
  5
72
330
1F
100
AcDbEntity
  8
0
  6
Continuous
 62
     7
370
    15
100
AcDbLine
 10
406.6474134862
 20
42.384427906
 30
0.0
 11
776.6474182546
 21
42.384427906
 31
0.0
  0
LINE
  5
73
330
1F
100
AcDbEntity
  8
0
  6
Continuous
 62
     7
370
    15
100
AcDbLine
 10
406.6474134862
 20
27.3844273099
 30
0.0
 11
776.6474182546
 21
27.3844273099
 31
0.0
  0
LINE
  5
74
330
1F
100
AcDbEntity
  8
0
  6
Continuous
 62
     7
370
    15
100
AcDbLine
 10
411.6474087178
 20
47.3844231376
 30
0.0
 11
411.6474087178
 21
407.3844374427
 31
0.0
  0
LINE
  5
75
330
1F
100
AcDbEntity
  8
0
  6
Continuous
 62
     7
370
    15
100
AcDbLine
 10
771.6474230229
 20
47.3844231376
 30
0.0
 11
411.6474087178
 21
47.3844231376
 31
0.0
  0
LINE
  5
76
330
1F
100
AcDbEntity
  8
0
  6
Continuous
 62
     7
370
    15
100
AcDbLine
 10
771.6474230229
 20
47.3844231376
 30
0.0
 11
771.6474230229
 21
407.3844374427
 31
0.0
  0
LINE
  5
77
330
1F
100
AcDbEntity
  8
0
  6
Continuous
 62
     7
370
    15
100
AcDbLine
 10
411.6474087178
 20
407.3844374427
 30
0.0
 11
771.6474230229
 21
407.3844374427
 31
0.0
  0
LINE
  5
78
330
1F
100
AcDbEntity
  8
0
  6
Continuous
 62
     7
370
    15
100
AcDbLine
 10
406.6474134862
 20
412.3844326743
 30
0.0
 11
406.6474134862
 21
42.384427906
 31
0.0
  0
LINE
  5
79
330
1F
100
AcDbEntity
  8
0
  6
Continuous
 62
     7
370
    15
100
AcDbLine
 10
406.6474134862
 20
412.3844326743
 30
0.0
 11
776.6474182546
 21
412.3844326743
 31
0.0
  0
LINE
  5
7A
330
1F
100
AcDbEntity
  8
0
  6
Continuous
 62
     7
370
    15
100
AcDbLine
 10
776.6474182546
 20
42.384427906
 30
0.0
 11
776.6474182546
 21
412.3844326743
 31
0.0
  0
LINE
  5
7B
330
1F
100
AcDbEntity
  8
0
  6
Continuous
 62
     7
370
    15
100
AcDbLine
 10
791.6474188506
 20
42.384427906
 30
0.0
 11
791.6474188506
 21
412.3844326743
 31
0.0
  0
LINE
  5
7C
330
1F
100
AcDbEntity
  8
0
  6
Continuous
 62
     7
370
    15
100
AcDbLine
 10
791.6474188506
 20
412.3844326743
 30
0.0
 11
776.6474182546
 21
412.3844326743
 31
0.0
  0
ARC
  5
7D
330
1F
100
AcDbEntity
  8
0
  6
Continuous
 62
     7
370
    15
100
AcDbCircle
 10
406.6474158704
 20
42.3844302902
 30
0.0
 40
15.00000000000001
100
AcDbArc
 50
180.0
 51
270.0
  0
LINE
  5
7E
330
1F
100
AcDbEntity
  8
0
  6
Continuous
 62
     7
370
    15
100
AcDbLine
 10
391.6474128901
 20
42.384427906
 30
0.0
 11
406.6474134862
 21
42.384427906
 31
0.0
  0
LINE
  5
7F
330
1F
100
AcDbEntity
  8
0
  6
Continuous
 62
     7
370
    15
100
AcDbLine
 10
391.6474128901
 20
217.3969381759
 30
0.0
 11
391.6474128901
 21
42.384427906
 31
0.0
  0
LINE
  5
80
330
1F
100
AcDbEntity
  8
0
  6
Continuous
 62
     7
370
    15
100
AcDbLine
 10
391.6474128901
 20
237.3719224045
 30
0.0
 11
391.6474128901
 21
412.3844326743
 31
0.0
  0
LINE
  5
81
330
1F
100
AcDbEntity
  8
0
  6
Continuous
 62
     7
370
    15
100
AcDbLine
 10
391.6474128901
 20
412.3844326743
 30
0.0
 11
406.6474134862
 21
412.3844326743
 31
0.0
  0
ARC
  5
82
330
1F
100
AcDbEntity
  8
0
  6
Continuous
 62
     7
370
    15
100
AcDbCircle
 10
776.6474158704
 20
412.3844302902
 30
0.0
 40
15.0
100
AcDbArc
 50
0.0
 51
90.0
  0
LINE
  5
83
330
1F
100
AcDbEntity
  8
0
  6
Continuous
 62
     7
370
    15
100
AcDbLine
 10
776.6474182546
 20
427.3844332704
 30
0.0
 11
776.6474182546
 21
412.3844326743
 31
0.0
  0
LINE
  5
84
330
1F
100
AcDbEntity
  8
0
  6
Continuous
 62
     7
370
    15
100
AcDbLine
 10
406.6474134862
 20
412.3844326743
 30
0.0
 11
406.6474134862
 21
427.3844332704
 31
0.0
  0
LINE
  5
85
330
1F
100
AcDbEntity
  8
0
  6
Continuous
 62
     7
370
    15
100
AcDbLine
 10
406.6474134862
 20
427.3844332704
 30
0.0
 11
776.6474182546
 21
427.3844332704
 31
0.0
  0
ARC
  5
86
330
1F
100
AcDbEntity
  8
0
  6
Continuous
 62
     7
370
    15
100
AcDbCircle
 10
406.6474158704
 20
412.3844302902
 30
0.0
 40
15.00000000000006
100
AcDbArc
 50
90.0
 51
180.0
  0
LINE
  5
87
330
1F
100
AcDbEntity
  8
0
  6
Continuous
 62
     7
370
    15
100
AcDbLine
 10
390.4474223792
 20
238.4189133802
 30
0.0
 11
391.6474128901
 21
238.4189133802
 31
0.0
  0
LINE
  5
88
330
1F
100
AcDbEntity
  8
0
  6
Continuous
 62
     7
370
    15
100
AcDbLine
 10
390.4474223792
 20
216.3499472001
 30
0.0
 11
391.6474128901
 21
216.3499472001
 31
0.0
  0
LINE
  5
89
330
1F
100
AcDbEntity
  8
0
  6
Continuous
 62
     7
370
    15
100
AcDbLine
 10
390.4474223792
 20
216.3499472001
 30
0.0
 11
390.4474223792
 21
238.4189133802
 31
0.0
  0
LINE
  5
8A
330
1F
100
AcDbEntity
  8
0
  6
Continuous
 62
     7
370
    15
100
AcDbLine
 10
391.6474128901
 20
237.3719224045
 30
0.0
 11
391.6474128901
 21
217.3969381759
 31
0.0
  0
LINE
  5
8B
330
1F
100
AcDbEntity
  8
0
  6
Continuous
 62
     7
370
    15
100
AcDbLine
 10
390.3474206864
 20
219.3844299102
 30
0.0
 11
390.3474206864
 21
225.3844301952
 31
0.0
  0
LINE
  5
8C
330
1F
100
AcDbEntity
  8
0
  6
Continuous
 62
     7
370
    15
100
AcDbLine
 10
390.3474206864
 20
232.3844301784
 30
0.0
 11
390.3474206864
 21
235.3844306701
 31
0.0
  0
LINE
  5
8D
330
1F
100
AcDbEntity
  8
0
  6
Continuous
 62
     7
370
    15
100
AcDbLine
 10
390.3474206864
 20
229.3844303852
 30
0.0
 11
390.3474206864
 21
232.3844301784
 31
0.0
  0
LINE
  5
8E
330
1F
100
AcDbEntity
  8
0
  6
Continuous
 62
     7
370
    15
100
AcDbLine
 10
390.4474223792
 20
238.4189133802
 30
0.0
 11
390.4474223792
 21
238.8844303125
 31
0.0
  0
LINE
  5
8F
330
1F
100
AcDbEntity
  8
0
  6
Continuous
 62
     7
370
    15
100
AcDbLine
 10
390.4474223792
 20
215.8844302678
 30
0.0
 11
390.4474223792
 21
216.3499472001
 31
0.0
  0
LINE
  5
90
330
1F
100
AcDbEntity
  8
0
  6
Continuous
 62
     7
370
    15
100
AcDbLine
 10
792.5487751901
 20
118.3844329128
 30
0.0
 11
792.5487751901
 21
83.384436489
 31
0.0
  0
LINE
  5
91
330
1F
100
AcDbEntity
  8
0
  6
Continuous
 62
     7
370
    15
100
AcDbLine
 10
792.5487751901
 20
118.3844329128
 30
0.0
 11
803.1474198043
 21
118.3844329128
 31
0.0
  0
LINE
  5
92
330
1F
100
AcDbEntity
  8
0
  6
Continuous
 62
     7
370
    15
100
AcDbLine
 10
792.5487751901
 20
83.384436489
 30
0.0
 11
803.1474198043
 21
83.384436489
 31
0.0
  0
LINE
  5
93
330
1F
100
AcDbEntity
  8
0
  6
Continuous
 62
     7
370
    15
100
AcDbLine
 10
792.5487751901
 20
336.3844276676
 30
0.0
 11
803.1474198043
 21
336.3844276676
 31
0.0
  0
LINE
  5
94
330
1F
100
AcDbEntity
  8
0
  6
Continuous
 62
     7
370
    15
100
AcDbLine
 10
792.5487751901
 20
371.3844240913
 30
0.0
 11
792.5487751901
 21
336.3844276676
 31
0.0
  0
LINE
  5
95
330
1F
100
AcDbEntity
  8
0
  6
Continuous
 62
     7
370
    15
100
AcDbLine
 10
792.5487751901
 20
371.3844240913
 30
0.0
 11
803.1474198043
 21
371.3844240913
 31
0.0
  0
LINE
  5
96
330
1F
100
AcDbEntity
  8
0
  6
Continuous
 62
     7
370
    15
100
AcDbLine
 10
792.08525967
 20
118.3844329128
 30
0.0
 11
792.08525967
 21
83.384436489
 31
0.0
  0
LINE
  5
97
330
1F
100
AcDbEntity
  8
0
  6
Continuous
 62
     7
370
    15
100
AcDbLine
 10
792.08525967
 20
118.3844329128
 30
0.0
 11
792.5487751901
 21
118.3844329128
 31
0.0
  0
LINE
  5
98
330
1F
100
AcDbEntity
  8
0
  6
Continuous
 62
     7
370
    15
100
AcDbLine
 10
792.08525967
 20
83.384436489
 30
0.0
 11
792.5487751901
 21
83.384436489
 31
0.0
  0
LINE
  5
99
330
1F
100
AcDbEntity
  8
0
  6
Continuous
 62
     7
370
    15
100
AcDbLine
 10
792.08525967
 20
371.3844240913
 30
0.0
 11
792.08525967
 21
336.3844276676
 31
0.0
  0
LINE
  5
9A
330
1F
100
AcDbEntity
  8
0
  6
Continuous
 62
     7
370
    15
100
AcDbLine
 10
792.08525967
 20
371.3844240913
 30
0.0
 11
792.5487751901
 21
371.3844240913
 31
0.0
  0
LINE
  5
9B
330
1F
100
AcDbEntity
  8
0
  6
Continuous
 62
     7
370
    15
100
AcDbLine
 10
792.08525967
 20
336.3844276676
 30
0.0
 11
792.5487751901
 21
336.3844276676
 31
0.0
  0
LINE
  5
9C
330
1F
100
AcDbEntity
  8
0
  6
Continuous
 62
     7
370
    15
100
AcDbLine
 10
791.6474188506
 20
118.3844329128
 30
0.0
 11
792.08525967
 21
118.3844329128
 31
0.0
  0
LINE
  5
9D
330
1F
100
AcDbEntity
  8
0
  6
Continuous
 62
     7
370
    15
100
AcDbLine
 10
791.6474188506
 20
83.384436489
 30
0.0
 11
792.08525967
 21
83.384436489
 31
0.0
  0
LINE
  5
9E
330
1F
100
AcDbEntity
  8
0
  6
Continuous
 62
     7
370
    15
100
AcDbLine
 10
791.6474188506
 20
371.3844240913
 30
0.0
 11
792.08525967
 21
371.3844240913
 31
0.0
  0
LINE
  5
9F
330
1F
100
AcDbEntity
  8
0
  6
Continuous
 62
     7
370
    15
100
AcDbLine
 10
791.6474188506
 20
336.3844276676
 30
0.0
 11
792.08525967
 21
336.3844276676
 31
0.0
  0
LINE
  5
A0
330
1F
100
AcDbEntity
  8
0
  6
Continuous
 62
     7
370
    15
100
AcDbLine
 10
384.3299592673
 20
220.8844301561
 30
0.0
 11
383.599444741
 21
220.8844301561
 31
0.0
  0
ARC
  5
A1
330
1F
100
AcDbEntity
  8
0
  6
Continuous
 62
     7
370
    15
100
AcDbCircle
 10
383.7395836309
 20
221.9732657285
 30
0.0
 40
1.097816839157935
100
AcDbArc
 50
174.1882798295
 51
262.6660489201
  0
LINE
  5
A2
330
1F
100
AcDbEntity
  8
0
  6
Continuous
 62
     7
370
    15
100
AcDbLine
 10
382.6474095523
 20
222.0844304459
 30
0.0
 11
383.3779240786
 21
222.0844304459
 31
0.0
  0
ARC
  5
A3
330
1F
100
AcDbEntity
  8
0
  6
Continuous
 62
     7
370
    15
100
AcDbCircle
 10
384.4700981572
 20
221.9732657285
 30
0.0
 40
1.097816839157879
100
AcDbArc
 50
174.1882798295
 51
262.6660489201
  0
ARC
  5
A4
330
1F
100
AcDbEntity
  8
0
  6
Continuous
 62
     7
370
    15
100
AcDbCircle
 10
384.4700981572
 20
232.7955948518
 30
0.0
 40
1.097816839157933
100
AcDbArc
 50
97.3339510799
 51
185.8117201705
  0
LINE
  5
A5
330
1F
100
AcDbEntity
  8
0
  6
Continuous
 62
     7
370
    15
100
AcDbLine
 10
384.3299592673
 20
233.8844304243
 30
0.0
 11
387.8733957946
 21
233.8844304243
 31
0.0
  0
LINE
  5
A6
330
1F
100
AcDbEntity
  8
0
  6
Continuous
 62
     7
370
    15
100
AcDbLine
 10
387.8733957946
 20
233.8844304243
 30
0.0
 11
387.8733957946
 21
220.8844301561
 31
0.0
  0
LINE
  5
A7
330
1F
100
AcDbEntity
  8
0
  6
Continuous
 62
     7
370
    15
100
AcDbLine
 10
387.8733957946
 20
220.8844301561
 30
0.0
 11
384.3299592673
 21
220.8844301561
 31
0.0
  0
LINE
  5
A8
330
1F
100
AcDbEntity
  8
0
  6
Continuous
 62
     7
370
    15
100
AcDbLine
 10
383.3779240786
 20
232.6844301344
 30
0.0
 11
383.3779240786
 21
222.0844304459
 31
0.0
  0
LINE
  5
A9
330
1F
100
AcDbEntity
  8
0
  6
Continuous
 62
     7
370
    15
100
AcDbLine
 10
383.3779240786
 20
232.6844301344
 30
0.0
 11
382.6474095523
 21
232.6844301344
 31
0.0
  0
LINE
  5
AA
330
1F
100
AcDbEntity
  8
0
  6
Continuous
 62
     7
370
    15
100
AcDbLine
 10
382.6474095523
 20
232.6844301344
 30
0.0
 11
382.6474095523
 21
222.0844304459
 31
0.0
  0
LINE
  5
AB
330
1F
100
AcDbEntity
  8
0
  6
Continuous
 62
     7
370
    15
100
AcDbLine
 10
383.599444741
 20
233.8844304243
 30
0.0
 11
384.3299592673
 21
233.8844304243
 31
0.0
  0
ARC
  5
AC
330
1F
100
AcDbEntity
  8
0
  6
Continuous
 62
     7
370
    15
100
AcDbCircle
 10
383.7395836309
 20
232.7955948518
 30
0.0
 40
1.097816839157908
100
AcDbArc
 50
97.3339510799
 51
185.8117201705
  0
LINE
  5
AD
330
1F
100
AcDbEntity
  8
0
  6
Continuous
 62
     7
370
    15
100
AcDbLine
 10
387.9549349486
 20
233.8844304243
 30
0.0
 11
387.8733957946
 21
233.8844304243
 31
0.0
  0
LINE
  5
AE
330
1F
100
AcDbEntity
  8
0
  6
Continuous
 62
     7
370
    15
100
AcDbLine
 10
387.8733957946
 20
220.8844301561
 30
0.0
 11
388.0069251
 21
220.8844301561
 31
0.0
  0
LINE
  5
AF
330
1F
100
AcDbEntity
  8
0
  6
Continuous
 62
     7
370
    15
100
AcDbLine
 10
382.6474095523
 20
231.2844301844
 30
0.0
 11
382.5426096856
 21
231.2844301844
 31
0.0
  0
LINE
  5
B0
330
1F
100
AcDbEntity
  8
0
  6
Continuous
 62
     7
370
    15
100
AcDbLine
 10
382.6474095523
 20
222.684430358
 30
0.0
 11
382.5426096856
 21
222.684430358
 31
0.0
  0
LINE
  5
B1
330
1F
100
AcDbEntity
  8
0
  6
Continuous
 62
     7
370
    15
100
AcDbLine
 10
388.0215729415
 20
219.3844299102
 30
0.0
 11
383.1480140626
 21
219.3844299102
 31
0.0
  0
LINE
  5
B2
330
1F
100
AcDbEntity
  8
0
  6
Continuous
 62
     7
370
    15
100
AcDbLine
 10
388.013302797
 20
220.1844304138
 30
0.0
 11
383.1474180161
 21
220.1844304138
 31
0.0
  0
LINE
  5
B3
330
1F
100
AcDbEntity
  8
0
  6
Continuous
 62
     7
370
    15
100
AcDbLine
 10
387.9758859813
 20
235.3844306701
 30
0.0
 11
383.1480140626
 21
235.3844306701
 31
0.0
  0
LINE
  5
B4
330
1F
100
AcDbEntity
  8
0
  6
Continuous
 62
     7
370
    15
100
AcDbLine
 10
388.0155677735
 20
234.5844301665
 30
0.0
 11
383.1474180161
 21
234.5844301665
 31
0.0
  0
LINE
  5
B5
330
1F
100
AcDbEntity
  8
0
  6
Continuous
 62
     7
370
    15
100
AcDbLine
 10
386.7474193513
 20
235.6844301605
 30
0.0
 11
387.9107679068
 21
235.6844301605
 31
0.0
  0
LINE
  5
B6
330
1F
100
AcDbEntity
  8
0
  6
Continuous
 62
     7
370
    15
100
AcDbLine
 10
388.0739207208
 20
235.6844301605
 30
0.0
 11
388.1362671792
 21
235.6844301605
 31
0.0
  0
LINE
  5
B7
330
1F
100
AcDbEntity
  8
0
  6
Continuous
 62
     7
370
    15
100
AcDbLine
 10
384.5474119126
 20
235.6844301605
 30
0.0
 11
386.7474193513
 21
235.6844301605
 31
0.0
  0
LINE
  5
B8
330
1F
100
AcDbEntity
  8
0
  6
Continuous
 62
     7
370
    15
100
AcDbLine
 10
386.7474193513
 20
218.5844303378
 30
0.0
 11
387.6109267413
 21
218.5844303378
 31
0.0
  0
LINE
  5
B9
330
1F
100
AcDbEntity
  8
0
  6
Continuous
 62
     7
370
    15
100
AcDbLine
 10
384.6474136054
 20
218.5844303378
 30
0.0
 11
386.7474193513
 21
218.5844303378
 31
0.0
  0
LINE
  5
BA
330
1F
100
AcDbEntity
  8
0
  6
Continuous
 62
     7
370
    15
100
AcDbLine
 10
386.7474193513
 20
218.9844305897
 30
0.0
 11
387.8508056342
 21
218.9844305897
 31
0.0
  0
LINE
  5
BB
330
1F
100
AcDbEntity
  8
0
  6
Continuous
 62
     7
370
    15
100
AcDbLine
 10
384.6474136054
 20
218.9844305897
 30
0.0
 11
386.7474193513
 21
218.9844305897
 31
0.0
  0
ARC
  5
BC
330
1F
100
AcDbEntity
  8
0
  6
Continuous
 62
     7
370
    15
100
AcDbCircle
 10
383.613169868
 20
234.5866844353
 30
0.0
 40
0.8027149752664448
100
AcDbArc
 50
125.4660676112
 51
180.1609042628
  0
ARC
  5
BD
330
1F
100
AcDbEntity
  8
0
  6
Continuous
 62
     7
370
    15
100
AcDbCircle
 10
383.613169868
 20
220.182176145
 30
0.0
 40
0.8027149752664448
100
AcDbArc
 50
179.8390957372
 51
234.5339323888
  0
LINE
  5
BE
330
1F
100
AcDbEntity
  8
0
  6
Continuous
 62
     7
370
    15
100
AcDbLine
 10
383.5982973515
 20
220.6344301151
 30
0.0
 11
383.5982973515
 21
220.1844304138
 31
0.0
  0
LINE
  5
BF
330
1F
100
AcDbEntity
  8
0
  6
Continuous
 62
     7
370
    15
100
AcDbLine
 10
383.5982973515
 20
234.5844301665
 30
0.0
 11
383.5982973515
 21
234.1344304653
 31
0.0
  0
LINE
  5
C0
330
1F
100
AcDbEntity
  8
0
  6
Continuous
 62
     7
370
    15
100
AcDbLine
 10
382.8104580581
 20
233.3559882165
 30
0.0
 11
382.8104580581
 21
234.5844301665
 31
0.0
  0
LINE
  5
C1
330
1F
100
AcDbEntity
  8
0
  6
Continuous
 62
     7
370
    15
100
AcDbLine
 10
382.8104580581
 20
220.1844304138
 30
0.0
 11
382.8104580581
 21
221.4128723638
 31
0.0
  0
SPLINE
  5
C2
330
1F
100
AcDbEntity
  8
0
  6
Continuous
 62
     7
370
    15
100
AcDbSpline
210
0.0
220
0.0
230
1.0
 70
    24
 71
     3
 72
    12
 73
     8
 74
     0
 42
0.00000001
 43
0.00000001
 40
0.0
 40
0.0
 40
0.0
 40
0.0
 40
0.2185048530107646
 40
0.4370162709322625
 40
0.655520512326239
 40
0.874027022610886
 40
1.0
 40
1.0
 40
1.0
 40
1.0
 10
389.806761854828
 20
234.0768253700438
 30
0.0
 10
389.6100422965927
 20
234.0768253700438
 30
0.0
 10
389.216597269744
 20
234.0768253700438
 30
0.0
 10
388.6558379499991
 20
234.0768253700438
 30
0.0
 10
388.2381777128348
 20
234.0768253700438
 30
0.0
 10
388.0116130176742
 20
234.0768253700438
 30
0.0
 10
388.029140567184
 20
234.0768253700438
 30
0.0
 10
388.0355502306825
 20
234.0768253700438
 30
0.0
  0
SPLINE
  5
C3
330
1F
100
AcDbEntity
  8
0
  6
Continuous
 62
     7
370
    15
100
AcDbSpline
210
0.0
220
0.0
230
1.0
 70
    24
 71
     3
 72
     9
 73
     5
 74
     0
 42
0.00000001
 43
0.00000001
 40
0.0
 40
0.0
 40
0.0
 40
0.0
 40
0.1970130322720919
 40
1.0
 40
1.0
 40
1.0
 40
1.0
 10
390.4474223791963
 20
234.0768253700438
 30
0.0
 10
390.4147701832717
 20
234.0768253700438
 30
0.0
 10
390.2490339598962
 20
234.0768253700438
 30
0.0
 10
390.003734291632
 20
234.0768253700438
 30
0.0
 10
389.806761854828
 20
234.0768253700438
 30
0.0
  0
SPLINE
  5
C4
330
1F
100
AcDbEntity
  8
0
  6
Continuous
 62
     7
370
    15
100
AcDbSpline
210
0.0
220
0.0
230
1.0
 70
     8
 71
     3
 72
    13
 73
     9
 74
     0
 42
0.00000001
 43
0.00000001
 40
0.0
 40
0.0
 40
0.0
 40
0.0
 40
0.1877387198033841
 40
0.3754724716890238
 40
0.5632104448785019
 40
0.7509479553634036
 40
0.9386854029058029
 40
0.9999999999999999
 40
0.9999999999999999
 40
0.9999999999999999
 40
0.9999999999999999
 10
389.5134772002107
 20
237.6916640707854
 30
0.0
 10
389.3167802403483
 20
237.6889653406874
 30
0.0
 10
388.923391525593
 20
237.6835679519051
 30
0.0
 10
388.3903763219778
 20
237.3930262924968
 30
0.0
 10
387.9998587738885
 20
236.938126122154
 30
0.0
 10
387.8268861439519
 20
236.3764468510651
 30
0.0
 10
387.8301828911751
 20
235.9032516586664
 30
0.0
 10
387.9575164109664
 20
235.6818180063067
 30
0.0
 10
387.9888648926621
 20
235.6273028337959
 30
0.0
  0
SPLINE
  5
C5
330
1F
100
AcDbEntity
  8
0
  6
Continuous
 62
     7
370
    15
100
AcDbSpline
210
0.0
220
0.0
230
1.0
 70
     8
 71
     3
 72
    10
 73
     6
 74
     0
 42
0.00000001
 43
0.00000001
 40
0.0
 40
0.0
 40
0.0
 40
0.0
 40
0.2093402306351941
 40
0.6046681487490184
 40
0.9999999999999999
 40
0.9999999999999999
 40
0.9999999999999999
 40
0.9999999999999999
 10
390.650644415558
 20
236.8855494344238
 30
0.0
 10
390.6089420458727
 20
236.978613065339
 30
0.0
 10
390.4884869637341
 20
237.2474224253491
 30
0.0
 10
390.0817818806406
 20
237.5640814426621
 30
0.0
 10
389.7029127219156
 20
237.6491363870423
 30
0.0
 10
389.5134772002107
 20
237.6916640707854
 30
0.0
  0
SPLINE
  5
C6
330
1F
100
AcDbEntity
  8
0
  6
Continuous
 62
     7
370
    15
100
AcDbSpline
210
0.0
220
0.0
230
1.0
 70
     8
 71
     3
 72
    13
 73
     9
 74
     0
 42
0.00000001
 43
0.00000001
 40
0.0
 40
0.0
 40
0.0
 40
0.0
 40
0.1768614626580366
 40
0.3537266438978727
 40
0.530591680287995
 40
0.7074549205632471
 40
0.884319107889526
 40
1.0
 40
1.0
 40
1.0
 40
1.0
 10
389.4962514578706
 20
217.048477315307
 30
0.0
 10
389.2995843800452
 20
217.0511680522067
 30
0.0
 10
388.9062460893919
 20
217.0565495825799
 30
0.0
 10
388.3728606736768
 20
217.3472247908166
 30
0.0
 10
387.9837300142397
 20
217.8015890833179
 30
0.0
 10
387.8055701735881
 20
218.3652835448171
 30
0.0
 10
387.826531931325
 20
218.8984345393849
 30
0.0
 10
387.9926258887169
 20
219.1717043402017
 30
0.0
 10
388.0583043038255
 20
219.2797632226351
 30
0.0
  0
SPLINE
  5
C7
330
1F
100
AcDbEntity
  8
0
  6
Continuous
 62
     7
370
    15
100
AcDbSpline
210
0.0
220
0.0
230
1.0
 70
     8
 71
     3
 72
    10
 73
     6
 74
     0
 42
0.00000001
 43
0.00000001
 40
0.0
 40
0.0
 40
0.0
 40
0.0
 40
0.0588268678079464
 40
0.5294113279345829
 40
0.9999999999999999
 40
0.9999999999999999
 40
0.9999999999999999
 40
0.9999999999999999
 10
390.5263687312013
 20
217.6483868891004
 30
0.0
 10
390.5157290387744
 20
217.626906649553
 30
0.0
 10
390.4199773201055
 20
217.4335956240494
 30
0.0
 10
390.0591439250989
 20
217.1793976412418
 30
0.0
 10
389.6838828400696
 20
217.0921175541505
 30
0.0
 10
389.4962514578706
 20
217.048477315307
 30
0.0
  0
SPLINE
  5
C8
330
1F
100
AcDbEntity
  8
0
  6
Continuous
 62
     7
370
    15
100
AcDbSpline
210
0.0
220
0.0
230
1.0
 70
    24
 71
     3
 72
    12
 73
     8
 74
     0
 42
0.00000001
 43
0.00000001
 40
0.0
 40
0.0
 40
0.0
 40
0.0
 40
0.2193535926155928
 40
0.438713775642038
 40
0.6580667542651362
 40
0.8774220105919697
 40
0.9999999999999999
 40
0.9999999999999999
 40
0.9999999999999999
 40
0.9999999999999999
 10
389.806761854828
 20
220.5181945385042
 30
0.0
 10
389.610046921512
 20
220.5181945385042
 30
0.0
 10
389.2166111446406
 20
220.5181945385042
 30
0.0
 10
388.6557824492265
 20
220.5181945385042
 30
0.0
 10
388.2383858338031
 20
220.5181945385042
 30
0.0
 10
388.0125380321645
 20
220.5181945385042
 30
0.0
 10
388.0295105416358
 20
220.5181945385042
 30
0.0
 10
388.0355949341661
 20
220.5181945385042
 30
0.0
  0
SPLINE
  5
C9
330
1F
100
AcDbEntity
  8
0
  6
Continuous
 62
     7
370
    15
100
AcDbSpline
210
0.0
220
0.0
230
1.0
 70
    24
 71
     3
 72
     9
 73
     5
 74
     0
 42
0.00000001
 43
0.00000001
 40
0.0
 40
0.0
 40
0.0
 40
0.0
 40
0.1970130322720919
 40
1.0
 40
1.0
 40
1.0
 40
1.0
 10
390.4474223791963
 20
220.5181945385042
 30
0.0
 10
390.4147701832717
 20
220.5181945385042
 30
0.0
 10
390.2490339598962
 20
220.5181945385042
 30
0.0
 10
390.003734291632
 20
220.5181945385042
 30
0.0
 10
389.806761854828
 20
220.5181945385042
 30
0.0
  0
SPLINE
  5
CA
330
1F
100
AcDbEntity
  8
0
  6
Continuous
 62
     7
370
    15
100
AcDbSpline
210
0.0
220
0.0
230
1.0
 70
     8
 71
     3
 72
    13
 73
     9
 74
     0
 42
0.00000001
 43
0.00000001
 40
0.0
 40
0.0
 40
0.0
 40
0.0
 40
0.1768615033144454
 40
0.3537265688979725
 40
0.5305918600777433
 40
0.7074548533138182
 40
0.8843190812971323
 40
1.0
 40
1.0
 40
1.0
 40
1.0
 10
387.9443998276597
 20
240.308082596362
 30
0.0
 10
387.7477328133849
 20
240.3053917859325
 30
0.0
 10
387.3543948236522
 20
240.3000101108765
 30
0.0
 10
386.8210083715077
 20
240.0093360988234
 30
0.0
 10
386.4318789782811
 20
239.5549714174078
 30
0.0
 10
386.2537183479118
 20
238.9912757798477
 30
0.0
 10
386.2746803328022
 20
238.4581254118713
 30
0.0
 10
386.4407742674855
 20
238.1848555826853
 30
0.0
 10
386.5064526736146
 20
238.0767966890338
 30
0.0
  0
SPLINE
  5
CB
330
1F
100
AcDbEntity
  8
0
  6
Continuous
 62
     7
370
    15
100
AcDbSpline
210
0.0
220
0.0
230
1.0
 70
     8
 71
     3
 72
    10
 73
     6
 74
     0
 42
0.00000001
 43
0.00000001
 40
0.0
 40
0.0
 40
0.0
 40
0.0
 40
0.1474627692345064
 40
0.5737294769795925
 40
1.0
 40
1.0
 40
1.0
 40
1.0
 10
389.0329892575151
 20
239.5955565655235
 30
0.0
 10
389.0049272304541
 20
239.655850613662
 30
0.0
 10
388.8957470476037
 20
239.8904350642529
 30
0.0
 10
388.510692266042
 20
240.1792589177947
 30
0.0
 10
388.133164536958
 20
240.2651412420593
 30
0.0
 10
387.9443998276597
 20
240.308082596362
 30
0.0
  0
SPLINE
  5
CC
330
1F
100
AcDbEntity
  8
0
  6
Continuous
 62
     7
370
    15
100
AcDbSpline
210
0.0
220
0.0
230
1.0
 70
     8
 71
     3
 72
    13
 73
     9
 74
     0
 42
0.00000001
 43
0.00000001
 40
0.0
 40
0.0
 40
0.0
 40
0.0
 40
0.1768614369716905
 40
0.3537265925246405
 40
0.5305916032278976
 40
0.7074545301206586
 40
0.8843186917601957
 40
0.9999999999999999
 40
0.9999999999999999
 40
0.9999999999999999
 40
0.9999999999999999
 10
387.9271740853196
 20
214.4320587897304
 30
0.0
 10
387.7305070097442
 20
214.4347495198955
 30
0.0
 10
387.337168723591
 20
214.4401310367995
 30
0.0
 10
386.8037832741248
 20
214.7308063460571
 30
0.0
 10
386.4146529539342
 20
215.1851700083159
 30
0.0
 10
386.236492559037
 20
215.7488655097316
 30
0.0
 10
386.2574549549868
 20
216.282016962551
 30
0.0
 10
386.4235485219506
 20
216.5552859082667
 30
0.0
 10
386.4892269312745
 20
216.6633446970585
 30
0.0
  0
SPLINE
  5
CD
330
1F
100
AcDbEntity
  8
0
  6
Continuous
 62
     7
370
    15
100
AcDbSpline
210
0.0
220
0.0
230
1.0
 70
     8
 71
     3
 72
    10
 73
     6
 74
     0
 42
0.00000001
 43
0.00000001
 40
0.0
 40
0.0
 40
0.0
 40
0.0
 40
0.1474583784593854
 40
0.5737317805032035
 40
1.0
 40
1.0
 40
1.0
 40
1.0
 10
389.015763515175
 20
215.1445848205689
 30
0.0
 10
388.9877070244669
 20
215.0842905045023
 30
0.0
 10
388.878544693125
 20
214.849697084498
 30
0.0
 10
388.4934643457192
 20
214.5608880792062
 30
0.0
 10
388.115936740464
 20
214.4750017121897
 30
0.0
 10
387.9271740853196
 20
214.4320587897304
 30
0.0
  0
LINE
  5
CE
330
1F
100
AcDbEntity
  8
0
  6
Continuous
 62
     7
370
    15
100
AcDbLine
 10
792.5487751901
 20
82.3844344625
 30
0.0
 11
792.5487751901
 21
47.3844231376
 31
0.0
  0
LINE
  5
CF
330
1F
100
AcDbEntity
  8
0
  6
Continuous
 62
     7
370
    15
100
AcDbLine
 10
803.1474198043
 20
82.3844344625
 30
0.0
 11
792.5487751901
 21
82.3844344625
 31
0.0
  0
LINE
  5
D0
330
1F
100
AcDbEntity
  8
0
  6
Continuous
 62
     7
370
    15
100
AcDbLine
 10
803.1474198043
 20
47.3844231376
 30
0.0
 11
792.5487751901
 21
47.3844231376
 31
0.0
  0
LINE
  5
D1
330
1F
100
AcDbEntity
  8
0
  6
Continuous
 62
     7
370
    15
100
AcDbLine
 10
792.5487751901
 20
407.3844374427
 30
0.0
 11
792.5487751901
 21
372.3844261178
 31
0.0
  0
LINE
  5
D2
330
1F
100
AcDbEntity
  8
0
  6
Continuous
 62
     7
370
    15
100
AcDbLine
 10
803.1474198043
 20
407.3844374427
 30
0.0
 11
792.5487751901
 21
407.3844374427
 31
0.0
  0
LINE
  5
D3
330
1F
100
AcDbEntity
  8
0
  6
Continuous
 62
     7
370
    15
100
AcDbLine
 10
803.1474198043
 20
372.3844261178
 30
0.0
 11
792.5487751901
 21
372.3844261178
 31
0.0
  0
LINE
  5
D4
330
1F
100
AcDbEntity
  8
0
  6
Continuous
 62
     7
370
    15
100
AcDbLine
 10
800.1474137246
 20
119.3844274887
 30
0.0
 11
795.147418493
 21
119.3844274887
 31
0.0
  0
LINE
  5
D5
330
1F
100
AcDbEntity
  8
0
  6
Continuous
 62
     7
370
    15
100
AcDbLine
 10
795.147418493
 20
335.3844330916
 30
0.0
 11
800.1474137246
 21
335.3844330916
 31
0.0
  0
LINE
  5
D6
330
1F
100
AcDbEntity
  8
0
  6
Continuous
 62
     7
370
    15
100
AcDbLine
 10
792.08525967
 20
47.3844231376
 30
0.0
 11
792.08525967
 21
82.3844344625
 31
0.0
  0
LINE
  5
D7
330
1F
100
AcDbEntity
  8
0
  6
Continuous
 62
     7
370
    15
100
AcDbLine
 10
792.08525967
 20
82.3844344625
 30
0.0
 11
792.5487751901
 21
82.3844344625
 31
0.0
  0
LINE
  5
D8
330
1F
100
AcDbEntity
  8
0
  6
Continuous
 62
     7
370
    15
100
AcDbLine
 10
792.5487751901
 20
47.3844231376
 30
0.0
 11
792.08525967
 21
47.3844231376
 31
0.0
  0
LINE
  5
D9
330
1F
100
AcDbEntity
  8
0
  6
Continuous
 62
     7
370
    15
100
AcDbLine
 10
792.08525967
 20
372.3844261178
 30
0.0
 11
792.08525967
 21
407.3844374427
 31
0.0
  0
LINE
  5
DA
330
1F
100
AcDbEntity
  8
0
  6
Continuous
 62
     7
370
    15
100
AcDbLine
 10
792.08525967
 20
407.3844374427
 30
0.0
 11
792.5487751901
 21
407.3844374427
 31
0.0
  0
LINE
  5
DB
330
1F
100
AcDbEntity
  8
0
  6
Continuous
 62
     7
370
    15
100
AcDbLine
 10
792.5487751901
 20
372.3844261178
 30
0.0
 11
792.08525967
 21
372.3844261178
 31
0.0
  0
LINE
  5
DC
330
1F
100
AcDbEntity
  8
0
  6
Continuous
 62
     7
370
    15
100
AcDbLine
 10
792.08525967
 20
407.3844374427
 30
0.0
 11
791.6474188506
 21
407.3844374427
 31
0.0
  0
LINE
  5
DD
330
1F
100
AcDbEntity
  8
0
  6
Continuous
 62
     7
370
    15
100
AcDbLine
 10
792.08525967
 20
372.3844261178
 30
0.0
 11
791.6474188506
 21
372.3844261178
 31
0.0
  0
LINE
  5
DE
330
1F
100
AcDbEntity
  8
0
  6
Continuous
 62
     7
370
    15
100
AcDbLine
 10
792.08525967
 20
82.3844344625
 30
0.0
 11
791.6474188506
 21
82.3844344625
 31
0.0
  0
LINE
  5
DF
330
1F
100
AcDbEntity
  8
0
  6
Continuous
 62
     7
370
    15
100
AcDbLine
 10
792.08525967
 20
47.3844231376
 30
0.0
 11
791.6474188506
 21
47.3844231376
 31
0.0
  0
LINE
  5
E0
330
1F
100
AcDbEntity
  8
0
  6
Continuous
 62
     7
370
    15
100
AcDbLine
 10
386.447414273
 20
234.1344304653
 30
0.0
 11
383.3474214017
 21
234.1344304653
 31
0.0
  0
LINE
  5
E1
330
1F
100
AcDbEntity
  8
0
  6
Continuous
 62
     7
370
    15
100
AcDbLine
 10
386.447414273
 20
220.6344301151
 30
0.0
 11
383.3474214017
 21
220.6344301151
 31
0.0
  0
LINE
  5
E2
330
1F
100
AcDbEntity
  8
0
  6
Continuous
 62
     7
370
    15
100
AcDbLine
 10
386.447414273
 20
220.6344301151
 30
0.0
 11
388.0069251
 21
220.6344301151
 31
0.0
  0
LINE
  5
E3
330
1F
100
AcDbEntity
  8
0
  6
Continuous
 62
     7
370
    15
100
AcDbLine
 10
386.447414273
 20
234.1344304653
 30
0.0
 11
388.0074913442
 21
234.1344304653
 31
0.0
  0
LINE
  5
E4
330
1F
100
AcDbEntity
  8
0
  6
Continuous
 62
     8
370
    15
100
AcDbLine
 10
386.447414273
 20
234.1344304653
 30
0.0
 11
386.447414273
 21
233.8844304243
 31
0.0
  0
LINE
  5
E5
330
1F
100
AcDbEntity
  8
0
  6
Continuous
 62
     8
370
    15
100
AcDbLine
 10
386.447414273
 20
220.8844301561
 30
0.0
 11
386.447414273
 21
220.6344301151
 31
0.0
  0
LINE
  5
E6
330
1F
100
AcDbEntity
  8
0
  6
Continuous
 62
     7
370
    15
100
AcDbLine
 10
216.5559068973
 20
233.8844304243
 30
0.0
 11
216.5559068973
 21
220.8844301561
 31
0.0
  0
LINE
  5
E7
330
1F
100
AcDbEntity
  8
0
  6
Continuous
 62
     7
370
    15
100
AcDbLine
 10
206.7659110481
 20
219.3844299102
 30
0.0
 11
206.7659110481
 21
220.1844304138
 31
0.0
  0
LINE
  5
E8
330
1F
100
AcDbEntity
  8
0
  6
Continuous
 62
     7
370
    15
100
AcDbLine
 10
206.7659110481
 20
234.5844301665
 30
0.0
 11
206.7659110481
 21
235.3844306701
 31
0.0
  0
LINE
  5
E9
330
1F
100
AcDbEntity
  8
0
  6
Continuous
 62
     7
370
    15
100
AcDbLine
 10
201.8359065706
 20
235.6844301605
 30
0.0
 11
201.8359065706
 21
235.3844306701
 31
0.0
  0
LINE
  5
EA
330
1F
100
AcDbEntity
  8
0
  6
Continuous
 62
     7
370
    15
100
AcDbLine
 10
206.2359065468
 20
235.3844306701
 30
0.0
 11
206.2359065468
 21
235.6844301605
 31
0.0
  0
ARC
  5
EB
330
1F
100
AcDbEntity
  8
0
  6
Continuous
 62
     7
370
    15
100
AcDbCircle
 10
204.0359094126
 20
232.5772874331
 30
0.0
 40
3.807142857143211
100
AcDbArc
 50
54.6997515601
 51
125.3002484399
  0
LINE
  5
EC
330
1F
100
AcDbEntity
  8
0
  6
Continuous
 62
     7
370
    15
100
AcDbLine
 10
201.9359082634
 20
218.9844305897
 30
0.0
 11
201.9359082634
 21
218.5844303378
 31
0.0
  0
LINE
  5
ED
330
1F
100
AcDbEntity
  8
0
  6
Continuous
 62
     7
370
    15
100
AcDbLine
 10
206.1359123046
 20
218.5844303378
 30
0.0
 11
206.1359123046
 21
218.9844305897
 31
0.0
  0
ARC
  5
EE
330
1F
100
AcDbEntity
  8
0
  6
Continuous
 62
     7
370
    15
100
AcDbCircle
 10
202.1359094126
 20
219.3844302902
 30
0.0
 40
0.4000000000008015
100
AcDbArc
 50
270.0
 51
0.0
  0
ARC
  5
EF
330
1F
100
AcDbEntity
  8
0
  6
Continuous
 62
     7
370
    15
100
AcDbCircle
 10
205.9359094126
 20
219.3844302902
 30
0.0
 40
0.4000000000008015
100
AcDbArc
 50
180.0
 51
270.0
  0
LINE
  5
F0
330
1F
100
AcDbEntity
  8
0
  6
Continuous
 62
     7
370
    15
100
AcDbLine
 10
202.5359109695
 20
234.5844301665
 30
0.0
 11
202.5359109695
 21
234.1344304653
 31
0.0
  0
LINE
  5
F1
330
1F
100
AcDbEntity
  8
0
  6
Continuous
 62
     7
370
    15
100
AcDbLine
 10
202.5359109695
 20
233.1344303013
 30
0.0
 11
202.5359109695
 21
232.6457257652
 31
0.0
  0
LINE
  5
F2
330
1F
100
AcDbEntity
  8
0
  6
Continuous
 62
     7
370
    15
100
AcDbLine
 10
202.5359109695
 20
231.849611205
 30
0.0
 11
202.5359109695
 21
231.693914094
 31
0.0
  0
LINE
  5
F3
330
1F
100
AcDbEntity
  8
0
  6
Continuous
 62
     7
370
    15
100
AcDbLine
 10
202.5359109695
 20
222.3948034728
 30
0.0
 11
202.5359109695
 21
221.634430279
 31
0.0
  0
LINE
  5
F4
330
1F
100
AcDbEntity
  8
0
  6
Continuous
 62
     7
370
    15
100
AcDbLine
 10
202.5359109695
 20
220.6344301151
 30
0.0
 11
202.5359109695
 21
220.1844304138
 31
0.0
  0
LINE
  5
F5
330
1F
100
AcDbEntity
  8
0
  6
Continuous
 62
     7
370
    15
100
AcDbLine
 10
205.5359095986
 20
220.1844304138
 30
0.0
 11
205.5359095986
 21
220.6344301151
 31
0.0
  0
LINE
  5
F6
330
1F
100
AcDbEntity
  8
0
  6
Continuous
 62
     7
370
    15
100
AcDbLine
 10
205.5359095986
 20
221.634430279
 30
0.0
 11
205.5359095986
 21
222.1215725215
 31
0.0
  0
LINE
  5
F7
330
1F
100
AcDbEntity
  8
0
  6
Continuous
 62
     7
370
    15
100
AcDbLine
 10
205.5359095986
 20
231.429489729
 30
0.0
 11
205.5359095986
 21
231.6174282962
 31
0.0
  0
LINE
  5
F8
330
1F
100
AcDbEntity
  8
0
  6
Continuous
 62
     7
370
    15
100
AcDbLine
 10
205.5359095986
 20
232.3725073868
 30
0.0
 11
205.5359095986
 21
233.1344303013
 31
0.0
  0
LINE
  5
F9
330
1F
100
AcDbEntity
  8
0
  6
Continuous
 62
     7
370
    15
100
AcDbLine
 10
205.5359095986
 20
234.1344304653
 30
0.0
 11
205.5359095986
 21
234.5844301665
 31
0.0
  0
SPLINE
  5
FA
330
1F
100
AcDbEntity
  8
0
  6
Continuous
 62
     7
370
    15
100
AcDbSpline
210
0.0
220
0.0
230
1.0
 70
     8
 71
     3
 72
    15
 73
    11
 74
     0
 42
0.00000001
 43
0.00000001
 40
0.0
 40
0.0
 40
0.0
 40
0.0
 40
0.1356020697477454
 40
0.2953298537971245
 40
0.4038071763059135
 40
0.5319604563897418
 40
0.673841799752955
 40
0.8261089327295112
 40
0.9126121771622892
 40
1.0
 40
1.0
 40
1.0
 40
1.0
 10
205.5359095985636
 20
221.9504755260054
 30
0.0
 10
205.5802910713582
 20
221.9431524185739
 30
0.0
 10
205.6769501702652
 20
221.9272033091605
 30
0.0
 10
205.8838013090263
 20
221.9748692138337
 30
0.0
 10
206.0770616573497
 20
222.0626003883774
 30
0.0
 10
206.2236502660954
 20
222.1822587713433
 30
0.0
 10
206.3223539253556
 20
222.3331557500983
 30
0.0
 10
206.3520217190116
 20
222.4549919507105
 30
0.0
 10
206.330827881403
 20
222.5842545857655
 30
0.0
 10
206.284577970006
 20
222.6509253831456
 30
0.0
 10
206.2613353783831
 20
222.6844303579632
 30
0.0
  0
SPLINE
  5
FB
330
1F
100
AcDbEntity
  8
0
  6
Continuous
 62
     7
370
    15
100
AcDbSpline
210
0.0
220
0.0
230
1.0
 70
     8
 71
     3
 72
    20
 73
    16
 74
     0
 42
0.00000001
 43
0.00000001
 40
0.0
 40
0.0
 40
0.0
 40
0.0
 40
0.0607085896928647
 40
0.2265340709124097
 40
0.3908033765635961
 40
0.4705947777165487
 40
0.547620336223349
 40
0.6228558366353615
 40
0.700337122134323
 40
0.7786472312326198
 40
0.8566576573408019
 40
0.9330985812596475
 40
0.9703702582868211
 40
0.9892323133334554
 40
1.0
 40
1.0
 40
1.0
 40
1.0
 10
201.7997116501078
 20
222.6844303579632
 30
0.0
 10
201.8459862110389
 20
222.6310969604725
 30
0.0
 10
202.0186597111224
 20
222.4320834154323
 30
0.0
 10
202.4356331252629
 20
222.4141566623609
 30
0.0
 10
203.0005875756724
 20
222.3391336997695
 30
0.0
 10
203.5202002986279
 20
222.2961915166093
 30
0.0
 10
203.9140913499438
 20
222.2656409562936
 30
0.0
 10
204.3070018489704
 20
222.2379574656472
 30
0.0
 10
204.6881636237598
 20
222.2066509775561
 30
0.0
 10
205.0438907479633
 20
222.1741779743202
 30
0.0
 10
205.3465107927806
 20
222.1433525716847
 30
0.0
 10
205.5390314185284
 20
222.1204500734604
 30
0.0
 10
205.6271371999871
 20
222.1124217466561
 30
0.0
 10
205.6725759118418
 20
222.1046281363118
 30
0.0
 10
205.6720182852314
 20
222.1085865378796
 30
0.0
 10
205.6718156392321
 20
222.1100250528756
 30
0.0
  0
SPLINE
  5
FC
330
1F
100
AcDbEntity
  8
0
  6
Continuous
 62
     7
370
    15
100
AcDbSpline
210
0.0
220
0.0
230
1.0
 70
     8
 71
     3
 72
    18
 73
    14
 74
     0
 42
0.00000001
 43
0.00000001
 40
0.0
 40
0.0
 40
0.0
 40
0.0
 40
0.0057535993643134
 40
0.1156386300432939
 40
0.238393074484563
 40
0.3593084287928258
 40
0.4757045805239178
 40
0.5872130566666578
 40
0.7047314609770277
 40
0.8264987827960724
 40
0.8891456746718793
 40
0.9517930430030114
 40
1.0
 40
1.0
 40
1.0
 40
1.0
 10
206.0425267274127
 20
231.3312542894486
 30
0.0
 10
206.0378795678862
 20
231.3342077663625
 30
0.0
 10
205.9444787022362
 20
231.3935681775707
 30
0.0
 10
205.722108076371
 20
231.3997506131758
 30
0.0
 10
205.3307359089664
 20
231.4589484001199
 30
0.0
 10
204.8188531708799
 20
231.5044941981714
 30
0.0
 10
204.2678231636486
 20
231.5506463137636
 30
0.0
 10
203.7057071936599
 20
231.5895424355763
 30
0.0
 10
203.1714348777585
 20
231.634271843212
 30
0.0
 10
202.7737822014479
 20
231.675343938332
 30
0.0
 10
202.5590688134238
 20
231.6964639276132
 30
0.0
 10
202.4629969362767
 20
231.6987533419285
 30
0.0
 10
202.4475614185457
 20
231.6826782029905
 30
0.0
 10
202.4408490116343
 20
231.6756876455251
 30
0.0
  0
SPLINE
  5
FD
330
1F
100
AcDbEntity
  8
0
  6
Continuous
 62
     7
370
    15
100
AcDbSpline
210
0.0
220
0.0
230
1.0
 70
     8
 71
     3
 72
    12
 73
     8
 74
     0
 42
0.00000001
 43
0.00000001
 40
0.0
 40
0.0
 40
0.0
 40
0.0
 40
0.2236729820054967
 40
0.4523097742282867
 40
0.6822372678484837
 40
0.9102273613192214
 40
1.0
 40
1.0
 40
1.0
 40
1.0
 10
201.741612022613
 20
232.486281012148
 30
0.0
 10
201.7288766035907
 20
232.4437330844989
 30
0.0
 10
201.7031231377448
 20
232.357692994291
 30
0.0
 10
201.8242461427302
 20
232.2660779424072
 30
0.0
 10
202.0559274453935
 20
232.1697725794076
 30
0.0
 10
202.3007838854103
 20
232.1072815210665
 30
0.0
 10
202.484116744301
 20
232.1125016639981
 30
0.0
 10
202.5359109694705
 20
232.1139764310423
 30
0.0
  0
SPLINE
  5
FE
330
1F
100
AcDbEntity
  8
0
  6
Continuous
 62
     7
370
    15
100
AcDbSpline
210
0.0
220
0.0
230
1.0
 70
     8
 71
     3
 72
    19
 73
    15
 74
     0
 42
0.00000001
 43
0.00000001
 40
0.0
 40
0.0
 40
0.0
 40
0.0
 40
0.0979033461140013
 40
0.1753767258512808
 40
0.2884821220827502
 40
0.3734524649498238
 40
0.4570021434395499
 40
0.6168865294898215
 40
0.679665710597983
 40
0.7634253193335143
 40
0.8137536452962887
 40
0.8702971820376518
 40
0.9323988135077979
 40
1.0
 40
1.0
 40
1.0
 40
1.0
 10
201.9178480560527
 20
231.991150350273
 30
0.0
 10
201.9683551605173
 20
231.9647733558646
 30
0.0
 10
202.0588298068376
 20
231.9175235824835
 30
0.0
 10
202.4334732246747
 20
231.8568749492298
 30
0.0
 10
202.9199856286859
 20
231.8029881739505
 30
0.0
 10
203.511313519876
 20
231.749754651473
 30
0.0
 10
204.2654161667504
 20
231.6982050113093
 30
0.0
 10
204.9065061103474
 20
231.6312607340556
 30
0.0
 10
205.555783858956
 20
231.5957418132278
 30
0.0
 10
205.9341056490139
 20
231.6739258163035
 30
0.0
 10
206.1859745968566
 20
231.7821296482719
 30
0.0
 10
206.3195594958211
 20
231.8704656360431
 30
0.0
 10
206.3813212406315
 20
231.9443091388725
 30
0.0
 10
206.3098852772549
 20
232.0248241647359
 30
0.0
 10
206.2726528103099
 20
232.066788644493
 30
0.0
  0
SPLINE
  5
FF
330
1F
100
AcDbEntity
  8
0
  6
Continuous
 62
     7
370
    15
100
AcDbSpline
210
0.0
220
0.0
230
1.0
 70
     8
 71
     3
 72
    25
 73
    21
 74
     0
 42
0.00000001
 43
0.00000001
 40
0.0
 40
0.0
 40
0.0
 40
0.0
 40
0.0176268882740728
 40
0.0344971213907655
 40
0.0503149791706755
 40
0.0649736838786139
 40
0.0909457265548138
 40
0.1134393592787898
 40
0.1538404791881554
 40
0.1912343311250533
 40
0.2995714530929409
 40
0.3999641476913028
 40
0.5012962946895908
 40
0.5949066934840759
 40
0.6784888340592545
 40
0.7336299262195819
 40
0.8075206488445794
 40
0.8952855986171407
 40
0.9453086507154752
 40
0.9999999999999999
 40
0.9999999999999999
 40
0.9999999999999999
 40
0.9999999999999999
 10
205.915330415462
 20
231.441206698269
 30
0.0
 10
205.9550414610595
 20
231.4456006904207
 30
0.0
 10
206.0327589083612
 20
231.4542000573815
 30
0.0
 10
206.1346335287302
 20
231.500208643011
 30
0.0
 10
206.2156550831987
 20
231.5591619609847
 30
0.0
 10
206.2918564352252
 20
231.6427406416628
 30
0.0
 10
206.3449057704648
 20
231.7463862036555
 30
0.0
 10
206.3690684217488
 20
231.8787203530246
 30
0.0
 10
206.3461631748785
 20
232.0105870356371
 30
0.0
 10
206.1749489138467
 20
232.2557999851279
 30
0.0
 10
205.8321416273437
 20
232.3428794574842
 30
0.0
 10
205.3370335627409
 20
232.4014350868845
 30
0.0
 10
204.7238195010801
 20
232.4597921302485
 30
0.0
 10
204.0743499849806
 20
232.5094148849303
 30
0.0
 10
203.534646838594
 20
232.5488951258607
 30
0.0
 10
203.088639969135
 20
232.5880727259902
 30
0.0
 10
202.6999353931384
 20
232.6263003591367
 30
0.0
 10
202.4397735798973
 20
232.6541416530228
 30
0.0
 10
202.3093417399641
 20
232.6766371570623
 30
0.0
 10
202.3006768674639
 20
232.689099719754
 30
0.0
 10
202.2961512858615
 20
232.6956087993089
 30
0.0
  0
SPLINE
  5
100
330
1F
100
AcDbEntity
  8
0
  6
Continuous
 62
     7
370
    15
100
AcDbSpline
210
0.0
220
0.0
230
1.0
 70
     8
 71
     3
 72
    12
 73
     8
 74
     0
 42
0.00000001
 43
0.00000001
 40
0.0
 40
0.0
 40
0.0
 40
0.0
 40
0.1756476026937465
 40
0.5723156357634481
 40
0.7586165168330588
 40
0.9207514297076087
 40
1.0
 40
1.0
 40
1.0
 40
1.0
 10
202.384477918838
 20
231.8771210768822
 30
0.0
 10
202.3189139734574
 20
231.8679497594722
 30
0.0
 10
202.1052858310394
 20
231.8380666966021
 30
0.0
 10
201.8893810059128
 20
231.7641361753886
 30
0.0
 10
201.7282193637064
 20
231.54920063426
 30
0.0
 10
201.6970081002227
 20
231.3889831556235
 30
0.0
 10
201.7279849491988
 20
231.310319900024
 30
0.0
 10
201.7381549532161
 20
231.284493979961
 30
0.0
  0
LINE
  5
101
330
1F
100
AcDbEntity
  8
0
  6
Continuous
 62
     7
370
    15
100
AcDbLine
 10
201.8956676776
 20
222.5866899164
 30
0.0
 11
200.7772088701
 21
222.5866899164
 31
0.0
  0
LINE
  5
102
330
1F
100
AcDbEntity
  8
0
  6
Continuous
 62
     7
370
    15
100
AcDbLine
 10
200.7772088701
 20
221.7866903441
 30
0.0
 11
202.5359109695
 21
221.7866903441
 31
0.0
  0
LINE
  5
103
330
1F
100
AcDbEntity
  8
0
  6
Continuous
 62
     7
370
    15
100
AcDbLine
 10
199.3669182713
 20
235.3844306701
 30
0.0
 11
199.3669182713
 21
235.4379006931
 31
0.0
  0
LINE
  5
104
330
1F
100
AcDbEntity
  8
0
  6
Continuous
 62
     7
370
    15
100
AcDbLine
 10
196.3669196422
 20
235.4379006931
 30
0.0
 11
196.3669196422
 21
235.3844306701
 31
0.0
  0
SPLINE
  5
105
330
1F
100
AcDbEntity
  8
0
  6
Continuous
 62
     7
370
    15
100
AcDbSpline
210
0.0
220
0.0
230
1.0
 70
     8
 71
     3
 72
    15
 73
    11
 74
     0
 42
0.00000001
 43
0.00000001
 40
0.0
 40
0.0
 40
0.0
 40
0.0
 40
0.1077552675361844
 40
0.2352510372338785
 40
0.3627912513738016
 40
0.4902571009683765
 40
0.617663018955488
 40
0.7450977887964529
 40
0.8724973178809208
 40
1.0
 40
1.0
 40
1.0
 40
1.0
 10
196.3829681927905
 20
219.3844299101833
 30
0.0
 10
196.3995112028288
 20
219.0719092020265
 30
0.0
 10
196.4356278619905
 20
218.3896147543211
 30
0.0
 10
196.7718250243141
 20
217.3804605040618
 30
0.0
 10
197.3299129061067
 20
216.4169822317649
 30
0.0
 10
198.0847429935205
 20
215.5960632786263
 30
0.0
 10
198.9998985379821
 20
214.9607847236771
 30
0.0
 10
200.0271572323106
 20
214.5406288979042
 30
0.0
 10
201.1231364237095
 20
214.3268206694084
 30
0.0
 10
201.8588932206151
 20
214.3923512167536
 30
0.0
 10
202.2269204909549
 20
214.4251297497753
 30
0.0
  0
SPLINE
  5
106
330
1F
100
AcDbEntity
  8
0
  6
Continuous
 62
     7
370
    15
100
AcDbSpline
210
0.0
220
0.0
230
1.0
 70
     8
 71
     3
 72
    15
 73
    11
 74
     0
 42
0.00000001
 43
0.00000001
 40
0.0
 40
0.0
 40
0.0
 40
0.0
 40
0.1316496999535092
 40
0.2633111012117089
 40
0.3951881764747674
 40
0.5266680118191072
 40
0.6575458254322917
 40
0.7882120828148513
 40
0.9184591766823333
 40
1.0
 40
1.0
 40
1.0
 40
1.0
 10
201.7292291576609
 20
217.3828146690134
 30
0.0
 10
201.5770476847461
 20
217.3710004964483
 30
0.0
 10
201.2726712127041
 20
217.3473711012494
 30
0.0
 10
200.8218157211158
 20
217.4488508194369
 30
0.0
 10
200.4027855388167
 20
217.6357014065804
 30
0.0
 10
200.0323924595588
 20
217.9082984457123
 30
0.0
 10
199.7301310795815
 20
218.2542088537946
 30
0.0
 10
199.5109737657134
 20
218.6559169982221
 30
0.0
 10
199.3936007672045
 20
219.0422300693154
 30
0.0
 10
199.3834268352093
 20
219.2893036817894
 30
0.0
 10
199.3795097524867
 20
219.3844299101833
 30
0.0
  0
SPLINE
  5
107
330
1F
100
AcDbEntity
  8
0
  6
Continuous
 62
     7
370
    15
100
AcDbSpline
210
0.0
220
0.0
230
1.0
 70
     8
 71
     3
 72
    15
 73
    11
 74
     0
 42
0.00000001
 43
0.00000001
 40
0.0
 40
0.0
 40
0.0
 40
0.0
 40
0.1249271214721239
 40
0.2499164818036735
 40
0.3749670227679549
 40
0.4999570499749355
 40
0.6249205129505147
 40
0.7499166961711446
 40
0.8748739392863579
 40
1.0
 40
1.0
 40
1.0
 40
1.0
 10
202.3977995569453
 20
240.3149511003498
 30
0.0
 10
202.0314228975406
 20
240.3582829569235
 30
0.0
 10
201.2984870493881
 20
240.4449682580601
 30
0.0
 10
200.1944609717997
 20
240.2797785163619
 30
0.0
 10
199.1536616796819
 20
239.8908477170139
 30
0.0
 10
198.2184727028417
 20
239.2858332198445
 30
0.0
 10
197.4378291941944
 20
238.4896393756389
 30
0.0
 10
196.8498668668124
 20
237.5452761
 30
0.0
 10
196.4540305510025
 20
236.4968336272055
 30
0.0
 10
196.3959696763672
 20
235.7577113748121
 30
0.0
 10
196.3669196421847
 20
235.3879007780555
 30
0.0
  0
SPLINE
  5
108
330
1F
100
AcDbEntity
  8
0
  6
Continuous
 62
     7
370
    15
100
AcDbSpline
210
0.0
220
0.0
230
1.0
 70
     8
 71
     3
 72
    15
 73
    11
 74
     0
 42
0.00000001
 43
0.00000001
 40
0.0
 40
0.0
 40
0.0
 40
0.0
 40
0.124252924346217
 40
0.2486334082690787
 40
0.3735416323009712
 40
0.4985834792505283
 40
0.6236638858843534
 40
0.7490699377483916
 40
0.8744384149534294
 40
0.9999999999999999
 40
0.9999999999999999
 40
0.9999999999999999
 40
0.9999999999999999
 10
199.3669182712779
 20
235.3879007780555
 30
0.0
 10
199.3804749492374
 20
235.539857036692
 30
0.0
 10
199.4076022226083
 20
235.8439255541245
 30
0.0
 10
199.5820729709627
 20
236.2712410498624
 30
0.0
 10
199.835402192412
 20
236.6528823048366
 30
0.0
 10
200.1652271548166
 20
236.9728122581824
 30
0.0
 10
200.5561530736745
 20
237.2133883087266
 30
0.0
 10
200.9888512122705
 20
237.3650121126889
 30
0.0
 10
201.4463830450412
 20
237.4184695847998
 30
0.0
 10
201.7483022770176
 20
237.37777957819
 30
0.0
 10
201.8993780667529
 20
237.3574189180139
 30
0.0
  0
LINE
  5
109
330
1F
100
AcDbEntity
  8
0
  6
Continuous
 62
     7
370
    15
100
AcDbLine
 10
217.2699779923
 20
219.9995670737
 30
0.0
 11
201.7290130908
 21
217.3831490138
 31
0.0
  0
LINE
  5
10A
330
1F
100
AcDbEntity
  8
0
  6
Continuous
 62
     7
370
    15
100
AcDbLine
 10
202.2270695026
 20
214.4247814351
 30
0.0
 11
217.7680418546
 21
217.0411999607
 31
0.0
  0
LINE
  5
10B
330
1F
100
AcDbEntity
  8
0
  6
Continuous
 62
     7
370
    15
100
AcDbLine
 10
201.8995941336
 20
237.3569933036
 30
0.0
 11
217.4405664856
 21
234.7405743124
 31
0.0
  0
LINE
  5
10C
330
1F
100
AcDbEntity
  8
0
  6
Continuous
 62
     7
370
    15
100
AcDbLine
 10
217.9386228974
 20
237.6989414254
 30
0.0
 11
202.3976579959
 21
240.315359951
 31
0.0
  0
SPLINE
  5
10D
330
1F
100
AcDbEntity
  8
0
  6
Continuous
 62
     7
370
    15
100
AcDbSpline
210
0.0
220
0.0
230
1.0
 70
     8
 71
     3
 72
    12
 73
     8
 74
     0
 42
0.00000001
 43
0.00000001
 40
0.0
 40
0.0
 40
0.0
 40
0.0
 40
0.152613827895301
 40
0.2973906389382041
 40
0.5623707939600926
 40
0.7966024113086981
 40
1.0
 40
1.0
 40
1.0
 40
1.0
 10
217.7676916773066
 20
217.0415091598037
 30
0.0
 10
218.0189112732239
 20
217.0942472481114
 30
0.0
 10
218.5084498502583
 20
217.1970152213317
 30
0.0
 10
219.3579721258362
 20
217.6262604550936
 30
0.0
 10
220.1699651496706
 20
218.3706528269095
 30
0.0
 10
220.7344006349471
 20
219.4416963969942
 30
0.0
 10
220.8160903733009
 20
220.1766220363663
 30
0.0
 10
220.8540574366793
 20
220.5181945385042
 30
0.0
  0
SPLINE
  5
10E
330
1F
100
AcDbEntity
  8
0
  6
Continuous
 62
     7
370
    15
100
AcDbSpline
210
0.0
220
0.0
230
1.0
 70
     8
 71
     3
 72
    11
 73
     7
 74
     0
 42
0.00000001
 43
0.00000001
 40
0.0
 40
0.0
 40
0.0
 40
0.0
 40
0.2003549870074007
 40
0.4328033447413612
 40
0.699019169605306
 40
1.0
 40
1.0
 40
1.0
 40
1.0
 10
217.8557426388011
 20
220.5181945385042
 30
0.0
 10
217.8425150755484
 20
220.4617678618488
 30
0.0
 10
217.8139411243628
 20
220.3398759401459
 30
0.0
 10
217.6980567304116
 20
220.1741772370981
 30
0.0
 10
217.5133038825849
 20
220.0352674774839
 30
0.0
 10
217.3556828352898
 20
220.0118795417494
 30
0.0
 10
217.2720418030963
 20
219.9994688192013
 30
0.0
  0
SPLINE
  5
10F
330
1F
100
AcDbEntity
  8
0
  6
Continuous
 62
     7
370
    15
100
AcDbSpline
210
0.0
220
0.0
230
1.0
 70
     8
 71
     3
 72
    12
 73
     8
 74
     0
 42
0.00000001
 43
0.00000001
 40
0.0
 40
0.0
 40
0.0
 40
0.0
 40
0.2034065952035427
 40
0.437640713017492
 40
0.7026160167115573
 40
0.8473899920914802
 40
1.0
 40
1.0
 40
1.0
 40
1.0
 10
220.8540574366793
 20
234.0768253700438
 30
0.0
 10
220.8326197080176
 20
234.4198342436756
 30
0.0
 10
220.7864952308461
 20
235.1578370988795
 30
0.0
 10
220.2743888576186
 20
236.2549463151272
 30
0.0
 10
219.4991840504767
 20
237.0377020886285
 30
0.0
 10
218.6713322847839
 20
237.5074309875564
 30
0.0
 10
218.1873438241192
 20
237.6336920139477
 30
0.0
 10
217.9389730746493
 20
237.6984860086444
 30
0.0
  0
SPLINE
  5
110
330
1F
100
AcDbEntity
  8
0
  6
Continuous
 62
     7
370
    15
100
AcDbSpline
210
0.0
220
0.0
230
1.0
 70
     8
 71
     3
 72
    12
 73
     8
 74
     0
 42
0.00000001
 43
0.00000001
 40
0.0
 40
0.0
 40
0.0
 40
0.0
 40
0.1555537791798699
 40
0.3022028942782866
 40
0.5679666328104833
 40
0.7999459153798593
 40
1.0
 40
1.0
 40
1.0
 40
1.0
 10
217.4386442358241
 20
234.741492596418
 30
0.0
 10
217.4791885706328
 20
234.7257430857086
 30
0.0
 10
217.5579562829339
 20
234.6951456438147
 30
0.0
 10
217.6875858429032
 20
234.6001011536348
 30
0.0
 10
217.8020175207937
 20
234.4539285647081
 30
0.0
 10
217.866162512943
 20
234.2596756864616
 30
0.0
 10
217.8590405026922
 20
234.134697034113
 30
0.0
 10
217.8557426388011
 20
234.0768253700438
 30
0.0
  0
LINE
  5
111
330
1F
100
AcDbEntity
  8
0
  6
Continuous
 62
     7
370
    15
100
AcDbLine
 10
217.8549007232
 20
234.1268252851
 30
0.0
 11
217.8549007232
 21
233.8844304243
 31
0.0
  0
LINE
  5
112
330
1F
100
AcDbEntity
  8
0
  6
Continuous
 62
     7
370
    15
100
AcDbLine
 10
217.8549007232
 20
220.8844301561
 30
0.0
 11
217.8549007232
 21
220.4681946234
 31
0.0
  0
LINE
  5
113
330
1F
100
AcDbEntity
  8
0
  6
Continuous
 62
     7
370
    15
100
AcDbLine
 10
220.8548993523
 20
220.4681946234
 30
0.0
 11
220.8548993523
 21
220.8871747637
 31
0.0
  0
LINE
  5
114
330
1F
100
AcDbEntity
  8
0
  6
Continuous
 62
     7
370
    15
100
AcDbLine
 10
220.8548993523
 20
233.8816858166
 30
0.0
 11
220.8548993523
 21
234.1268252851
 31
0.0
  0
LINE
  5
115
330
1F
100
AcDbEntity
  8
0
  6
Continuous
 62
     7
370
    15
100
AcDbLine
 10
207.1541831548
 20
232.9844300905
 30
0.0
 11
205.5359095986
 21
232.9844300905
 31
0.0
  0
LINE
  5
116
330
1F
100
AcDbEntity
  8
0
  6
Continuous
 62
     7
370
    15
100
AcDbLine
 10
206.1628312523
 20
232.1844305182
 30
0.0
 11
207.1541831548
 21
232.1844305182
 31
0.0
  0
LINE
  5
117
330
1F
100
AcDbEntity
  8
0
  6
Continuous
 62
     7
370
    15
100
AcDbLine
 10
207.4924097116
 20
234.2525691995
 30
0.0
 11
207.2258800919
 21
233.0443220483
 31
0.0
  0
LINE
  5
118
330
1F
100
AcDbEntity
  8
0
  6
Continuous
 62
     7
370
    15
100
AcDbLine
 10
207.9940349514
 20
232.8127719732
 30
0.0
 11
208.2736254389
 21
234.0802414612
 31
0.0
  0
SPLINE
  5
119
330
1F
100
AcDbEntity
  8
0
  6
Continuous
 62
     7
370
    15
100
AcDbSpline
210
0.0
220
0.0
230
1.0
 70
     8
 71
     3
 72
    11
 73
     7
 74
     0
 42
0.00000001
 43
0.00000001
 40
0.0
 40
0.0
 40
0.0
 40
0.0
 40
0.2541309399275824
 40
0.5022690019548702
 40
0.7495126202113759
 40
1.0
 40
1.0
 40
1.0
 40
1.0
 10
207.1541831547961
 20
232.1844305181507
 30
0.0
 10
207.2542718992311
 20
232.1946766296289
 30
0.0
 10
207.4520891102666
 20
232.2149272303135
 30
0.0
 10
207.7102344364648
 20
232.3689597180833
 30
0.0
 10
207.9136834223004
 20
232.5880338507805
 30
0.0
 10
207.9754219036498
 20
232.7750836346406
 30
0.0
 10
208.0064923221812
 20
232.8692180374268
 30
0.0
  0
LINE
  5
11A
330
1F
100
AcDbEntity
  8
0
  6
Continuous
 62
     7
370
    15
100
AcDbLine
 10
217.1345189864
 20
233.8844304243
 30
0.0
 11
217.1345189864
 21
220.8844301561
 31
0.0
  0
LINE
  5
11B
330
1F
100
AcDbEntity
  8
0
  6
Continuous
 62
     7
370
    15
100
AcDbLine
 10
217.1345189864
 20
233.8844304243
 30
0.0
 11
219.8534966166
 21
233.8844304243
 31
0.0
  0
LWPOLYLINE
  5
11C
330
1F
100
AcDbEntity
  8
0
  6
Continuous
 62
     7
370
    15
100
AcDbPolyline
 90
        9
 70
   128
 43
0.0
 10
220.5840111429
 20
232.6844301344
 10
220.5699742491
 20
232.9185385527
 10
220.5284074599
 20
233.1436503948
 10
220.4608977492
 20
233.3511146055
 10
220.3700528199
 20
233.5329585978
 10
220.2593520934
 20
233.6821937272
 10
220.1330573017
 20
233.7930858405
 10
219.9960187728
 20
233.86137274
 10
219.8534966166
 20
233.8844304243
  0
LINE
  5
11D
330
1F
100
AcDbEntity
  8
0
  6
Continuous
 62
     7
370
    15
100
AcDbLine
 10
220.5840111429
 20
232.6844301344
 30
0.0
 11
220.5840111429
 21
222.0844304459
 31
0.0
  0
LWPOLYLINE
  5
11E
330
1F
100
AcDbEntity
  8
0
  6
Continuous
 62
     7
370
    15
100
AcDbPolyline
 90
        9
 70
   128
 43
0.0
 10
219.8534966166
 20
220.8844301561
 10
219.9960187728
 20
220.9074878404
 10
220.1330573017
 20
220.9757747398
 10
220.2593520934
 20
221.0866668531
 10
220.3700528199
 20
221.2359019825
 10
220.4608977492
 20
221.4177459748
 10
220.5284074599
 20
221.6252101855
 10
220.5699742491
 20
221.8503220277
 10
220.5840111429
 20
222.0844304459
  0
LINE
  5
11F
330
1F
100
AcDbEntity
  8
0
  6
Continuous
 62
     7
370
    15
100
AcDbLine
 10
219.8534966166
 20
220.8844301561
 30
0.0
 11
217.1345189864
 21
220.8844301561
 31
0.0
  0
LINE
  5
120
330
1F
100
AcDbEntity
  8
0
  6
Continuous
 62
     7
370
    15
100
AcDbLine
 10
220.8055243547
 20
220.8844301561
 30
0.0
 11
219.8534966166
 21
220.8844301561
 31
0.0
  0
LINE
  5
121
330
1F
100
AcDbEntity
  8
0
  6
Continuous
 62
     7
370
    15
100
AcDbLine
 10
220.5840111429
 20
222.0844304459
 30
0.0
 11
221.536038881
 21
222.0844304459
 31
0.0
  0
LWPOLYLINE
  5
122
330
1F
100
AcDbEntity
  8
0
  6
Continuous
 62
     7
370
    15
100
AcDbPolyline
 90
        9
 70
   128
 43
0.0
 10
221.536038881
 20
222.0844304459
 10
221.5220019872
 20
221.8503220277
 10
221.4804277475
 20
221.6252101855
 10
221.4129254873
 20
221.4177459748
 10
221.3220731075
 20
221.2359019825
 10
221.2113723809
 20
221.0866668531
 10
221.0850775892
 20
220.9757747398
 10
220.9480390603
 20
220.9074878404
 10
220.8055243547
 20
220.8844301561
  0
LINE
  5
123
330
1F
100
AcDbEntity
  8
0
  6
Continuous
 62
     7
370
    15
100
AcDbLine
 10
219.8534966166
 20
233.8844304243
 30
0.0
 11
220.8055243547
 21
233.8844304243
 31
0.0
  0
LWPOLYLINE
  5
124
330
1F
100
AcDbEntity
  8
0
  6
Continuous
 62
     7
370
    15
100
AcDbPolyline
 90
        9
 70
   128
 43
0.0
 10
220.8055243547
 20
233.8844304243
 10
220.9480390603
 20
233.86137274
 10
221.0850775892
 20
233.7930858405
 10
221.2113723809
 20
233.6821937272
 10
221.3220731075
 20
233.5329585978
 10
221.4129254873
 20
233.3511146055
 10
221.4804277475
 20
233.1436503948
 10
221.5220019872
 20
232.9185385527
 10
221.536038881
 20
232.6844301344
  0
LINE
  5
125
330
1F
100
AcDbEntity
  8
0
  6
Continuous
 62
     7
370
    15
100
AcDbLine
 10
221.536038881
 20
232.6844301344
 30
0.0
 11
220.5840111429
 21
232.6844301344
 31
0.0
  0
LINE
  5
126
330
1F
100
AcDbEntity
  8
0
  6
Continuous
 62
     7
370
    15
100
AcDbLine
 10
221.536038881
 20
232.6844301344
 30
0.0
 11
221.536038881
 21
222.0844304459
 31
0.0
  0
LINE
  5
127
330
1F
100
AcDbEntity
  8
0
  6
Continuous
 62
     7
370
    15
100
AcDbLine
 10
216.5559068973
 20
233.8844304243
 30
0.0
 11
217.1345189864
 21
233.8844304243
 31
0.0
  0
LINE
  5
128
330
1F
100
AcDbEntity
  8
0
  6
Continuous
 62
     7
370
    15
100
AcDbLine
 10
217.1345189864
 20
220.8844301561
 30
0.0
 11
216.5559068973
 21
220.8844301561
 31
0.0
  0
LINE
  5
129
330
1F
100
AcDbEntity
  8
0
  6
Continuous
 62
     7
370
    15
100
AcDbLine
 10
226.6559065039
 20
232.7844304302
 30
0.0
 11
225.1559109146
 21
232.7844304302
 31
0.0
  0
LINE
  5
12A
330
1F
100
AcDbEntity
  8
0
  6
Continuous
 62
     7
370
    15
100
AcDbLine
 10
225.1559109146
 20
231.9844303922
 30
0.0
 11
226.6559065039
 21
231.9844303922
 31
0.0
  0
LINE
  5
12B
330
1F
100
AcDbEntity
  8
0
  6
Continuous
 62
     7
370
    15
100
AcDbLine
 10
226.6559065039
 20
230.4844303792
 30
0.0
 11
227.4559125955
 21
230.4844303792
 31
0.0
  0
LINE
  5
12C
330
1F
100
AcDbEntity
  8
0
  6
Continuous
 62
     7
370
    15
100
AcDbLine
 10
227.4559125955
 20
230.4844303792
 30
0.0
 11
227.4559125955
 21
231.9844303922
 31
0.0
  0
LINE
  5
12D
330
1F
100
AcDbEntity
  8
0
  6
Continuous
 62
     7
370
    15
100
AcDbLine
 10
227.4559125955
 20
231.9844303922
 30
0.0
 11
228.9559081847
 21
231.9844303922
 31
0.0
  0
LINE
  5
12E
330
1F
100
AcDbEntity
  8
0
  6
Continuous
 62
     7
370
    15
100
AcDbLine
 10
228.9559081847
 20
231.9844303922
 30
0.0
 11
228.9559081847
 21
232.7844304302
 31
0.0
  0
LINE
  5
12F
330
1F
100
AcDbEntity
  8
0
  6
Continuous
 62
     7
370
    15
100
AcDbLine
 10
228.9559081847
 20
232.7844304302
 30
0.0
 11
227.4559125955
 21
232.7844304302
 31
0.0
  0
LINE
  5
130
330
1F
100
AcDbEntity
  8
0
  6
Continuous
 62
     7
370
    15
100
AcDbLine
 10
227.4559125955
 20
232.7844304302
 30
0.0
 11
227.4559125955
 21
234.2844302104
 31
0.0
  0
LINE
  5
131
330
1F
100
AcDbEntity
  8
0
  6
Continuous
 62
     7
370
    15
100
AcDbLine
 10
226.6559065039
 20
231.9844303922
 30
0.0
 11
226.6559065039
 21
230.4844303792
 31
0.0
  0
CIRCLE
  5
132
330
1F
100
AcDbEntity
  8
0
  6
Continuous
 62
     7
370
    15
100
AcDbCircle
 10
227.0559094126
 20
232.3844302902
 30
0.0
 40
3.0
  0
LINE
  5
133
330
1F
100
AcDbEntity
  8
0
  6
Continuous
 62
     7
370
    15
100
AcDbLine
 10
225.1559109146
 20
232.7844304302
 30
0.0
 11
225.1559109146
 21
231.9844303922
 31
0.0
  0
LINE
  5
134
330
1F
100
AcDbEntity
  8
0
  6
Continuous
 62
     7
370
    15
100
AcDbLine
 10
226.6559065039
 20
234.2844302104
 30
0.0
 11
226.6559065039
 21
232.7844304302
 31
0.0
  0
LINE
  5
135
330
1F
100
AcDbEntity
  8
0
  6
Continuous
 62
     7
370
    15
100
AcDbLine
 10
227.4559125955
 20
234.2844302104
 30
0.0
 11
226.6559065039
 21
234.2844302104
 31
0.0
  0
LINE
  5
136
330
1F
100
AcDbEntity
  8
0
  6
Continuous
 62
     7
370
    15
100
AcDbLine
 10
227.4559125955
 20
220.4844303699
 30
0.0
 11
227.4559125955
 21
221.9844301501
 31
0.0
  0
LINE
  5
137
330
1F
100
AcDbEntity
  8
0
  6
Continuous
 62
     7
370
    15
100
AcDbLine
 10
227.4559125955
 20
221.9844301501
 30
0.0
 11
228.9559081847
 21
221.9844301501
 31
0.0
  0
LINE
  5
138
330
1F
100
AcDbEntity
  8
0
  6
Continuous
 62
     7
370
    15
100
AcDbLine
 10
228.9559081847
 20
221.9844301501
 30
0.0
 11
228.9559081847
 21
222.7844301881
 31
0.0
  0
LINE
  5
139
330
1F
100
AcDbEntity
  8
0
  6
Continuous
 62
     7
370
    15
100
AcDbLine
 10
228.9559081847
 20
222.7844301881
 30
0.0
 11
227.4559125955
 21
222.7844301881
 31
0.0
  0
LINE
  5
13A
330
1F
100
AcDbEntity
  8
0
  6
Continuous
 62
     7
370
    15
100
AcDbLine
 10
227.4559125955
 20
222.7844301881
 30
0.0
 11
227.4559125955
 21
224.2844302011
 31
0.0
  0
LINE
  5
13B
330
1F
100
AcDbEntity
  8
0
  6
Continuous
 62
     7
370
    15
100
AcDbLine
 10
227.4559125955
 20
224.2844302011
 30
0.0
 11
226.6559065039
 21
224.2844302011
 31
0.0
  0
LINE
  5
13C
330
1F
100
AcDbEntity
  8
0
  6
Continuous
 62
     7
370
    15
100
AcDbLine
 10
225.1559109146
 20
221.9844301501
 30
0.0
 11
226.6559065039
 21
221.9844301501
 31
0.0
  0
CIRCLE
  5
13D
330
1F
100
AcDbEntity
  8
0
  6
Continuous
 62
     7
370
    15
100
AcDbCircle
 10
227.0559094126
 20
222.3844302902
 30
0.0
 40
3.0
  0
LINE
  5
13E
330
1F
100
AcDbEntity
  8
0
  6
Continuous
 62
     7
370
    15
100
AcDbLine
 10
226.6559065039
 20
221.9844301501
 30
0.0
 11
226.6559065039
 21
220.4844303699
 31
0.0
  0
LINE
  5
13F
330
1F
100
AcDbEntity
  8
0
  6
Continuous
 62
     7
370
    15
100
AcDbLine
 10
225.1559109146
 20
222.7844301881
 30
0.0
 11
225.1559109146
 21
221.9844301501
 31
0.0
  0
LINE
  5
140
330
1F
100
AcDbEntity
  8
0
  6
Continuous
 62
     7
370
    15
100
AcDbLine
 10
226.6559065039
 20
224.2844302011
 30
0.0
 11
226.6559065039
 21
222.7844301881
 31
0.0
  0
LINE
  5
141
330
1F
100
AcDbEntity
  8
0
  6
Continuous
 62
     7
370
    15
100
AcDbLine
 10
226.6559065039
 20
222.7844301881
 30
0.0
 11
225.1559109146
 21
222.7844301881
 31
0.0
  0
LINE
  5
142
330
1F
100
AcDbEntity
  8
0
  6
Continuous
 62
     7
370
    15
100
AcDbLine
 10
226.6559065039
 20
220.4844303699
 30
0.0
 11
227.4559125955
 21
220.4844303699
 31
0.0
  0
ARC
  5
143
330
1F
100
AcDbEntity
  8
0
  6
Continuous
 62
     7
370
    15
100
AcDbCircle
 10
216.5559094126
 20
227.3844302902
 30
0.0
 40
16.00000000000001
100
AcDbArc
 50
316.3971810272
 51
43.6028189726
  0
ARC
  5
144
330
1F
100
AcDbEntity
  8
0
  6
Continuous
 62
     7
370
    15
100
AcDbCircle
 10
227.0559094126
 20
217.3844302901
 30
0.0
 40
1.50000000000001
100
AcDbArc
 50
227.2726046868
 51
316.3971810272
  0
LINE
  5
145
330
1F
100
AcDbEntity
  8
0
  6
Continuous
 62
     7
370
    15
100
AcDbLine
 10
221.0559085662
 20
233.8844304243
 30
0.0
 11
226.0381416137
 21
238.4863159889
 31
0.0
  0
LINE
  5
146
330
1F
100
AcDbEntity
  8
0
  6
Continuous
 62
     7
370
    15
100
AcDbLine
 10
226.0381416137
 20
216.2825445914
 30
0.0
 11
221.0559085662
 21
220.8844301561
 31
0.0
  0
ARC
  5
147
330
1F
100
AcDbEntity
  8
0
  6
Continuous
 62
     7
370
    15
100
AcDbCircle
 10
227.0559094126
 20
237.3844302901
 30
0.0
 40
1.500000000000028
100
AcDbArc
 50
43.6028189726
 51
132.7273953127
  0
LINE
  5
148
330
1F
100
AcDbEntity
  8
0
  6
Continuous
 62
     7
370
    15
100
AcDbLine
 10
220.8548993523
 20
233.8844304243
 30
0.0
 11
221.0559085662
 21
233.8844304243
 31
0.0
  0
LINE
  5
149
330
1F
100
AcDbEntity
  8
0
  6
Continuous
 62
     7
370
    15
100
AcDbLine
 10
221.0559085662
 20
220.8844301561
 30
0.0
 11
220.8548993523
 21
220.8844301561
 31
0.0
  0
LINE
  5
14A
330
1F
100
AcDbEntity
  8
0
  6
Continuous
 62
     7
370
    15
100
AcDbLine
 10
229.0559098775
 20
237.3719224045
 30
0.0
 11
229.0559098775
 21
412.3844326743
 31
0.0
  0
LINE
  5
14B
330
1F
100
AcDbEntity
  8
0
  6
Continuous
 62
     7
370
    15
100
AcDbLine
 10
224.0559071953
 20
236.655407519
 30
0.0
 11
224.0559071953
 21
412.3844326743
 31
0.0
  0
LINE
  5
14C
330
1F
100
AcDbEntity
  8
0
  6
Continuous
 62
     7
370
    15
100
AcDbLine
 10
224.0559071953
 20
412.3844326743
 30
0.0
 11
229.0559098775
 21
412.3844326743
 31
0.0
  0
LINE
  5
14D
330
1F
100
AcDbEntity
  8
0
  6
Continuous
 62
     7
370
    15
100
AcDbLine
 10
224.0559071953
 20
427.3844332704
 30
0.0
 11
229.0559098775
 21
427.3844332704
 31
0.0
  0
LINE
  5
14E
330
1F
100
AcDbEntity
  8
0
  6
Continuous
 62
     7
370
    15
100
AcDbLine
 10
229.0559098775
 20
412.3844326743
 30
0.0
 11
229.0559098775
 21
427.3844332704
 31
0.0
  0
LINE
  5
14F
330
1F
100
AcDbEntity
  8
0
  6
Continuous
 62
     7
370
    15
100
AcDbLine
 10
224.0559071953
 20
412.3844326743
 30
0.0
 11
224.0559071953
 21
427.3844332704
 31
0.0
  0
LINE
  5
150
330
1F
100
AcDbEntity
  8
0
  6
Continuous
 62
     7
370
    15
100
AcDbLine
 10
229.0559098775
 20
217.3969381759
 30
0.0
 11
229.0559098775
 21
42.384427906
 31
0.0
  0
LINE
  5
151
330
1F
100
AcDbEntity
  8
0
  6
Continuous
 62
     7
370
    15
100
AcDbLine
 10
229.0559098775
 20
412.3844326743
 30
0.0
 11
244.0559104736
 21
412.3844326743
 31
0.0
  0
LINE
  5
152
330
1F
100
AcDbEntity
  8
0
  6
Continuous
 62
     7
370
    15
100
AcDbLine
 10
244.0559104736
 20
412.3844326743
 30
0.0
 11
244.0559104736
 21
42.384427906
 31
0.0
  0
LINE
  5
153
330
1F
100
AcDbEntity
  8
0
  6
Continuous
 62
     7
370
    15
100
AcDbLine
 10
229.0559098775
 20
42.384427906
 30
0.0
 11
244.0559104736
 21
42.384427906
 31
0.0
  0
ARC
  5
154
330
1F
100
AcDbEntity
  8
0
  6
Continuous
 62
     7
370
    15
100
AcDbCircle
 10
229.0559094126
 20
412.3844302902
 30
0.0
 40
15.00000000000003
100
AcDbArc
 50
0.0
 51
90.0
  0
LINE
  5
155
330
1F
100
AcDbEntity
  8
0
  6
Continuous
 62
     7
370
    15
100
AcDbLine
 10
224.0559071953
 20
42.384427906
 30
0.0
 11
229.0559098775
 21
42.384427906
 31
0.0
  0
LINE
  5
156
330
1F
100
AcDbEntity
  8
0
  6
Continuous
 62
     7
370
    15
100
AcDbLine
 10
224.0559071953
 20
218.1134530613
 30
0.0
 11
224.0559071953
 21
42.384427906
 31
0.0
  0
LINE
  5
157
330
1F
100
AcDbEntity
  8
0
  6
Continuous
 62
     7
370
    15
100
AcDbLine
 10
224.0559071953
 20
27.3844273099
 30
0.0
 11
229.0559098775
 21
27.3844273099
 31
0.0
  0
LINE
  5
158
330
1F
100
AcDbEntity
  8
0
  6
Continuous
 62
     7
370
    15
100
AcDbLine
 10
229.0559098775
 20
42.384427906
 30
0.0
 11
229.0559098775
 21
27.3844273099
 31
0.0
  0
LINE
  5
159
330
1F
100
AcDbEntity
  8
0
  6
Continuous
 62
     7
370
    15
100
AcDbLine
 10
224.0559071953
 20
42.384427906
 30
0.0
 11
224.0559071953
 21
27.3844273099
 31
0.0
  0
ARC
  5
15A
330
1F
100
AcDbEntity
  8
0
  6
Continuous
 62
     7
370
    15
100
AcDbCircle
 10
229.0559094126
 20
42.3844302902
 30
0.0
 40
15.00000000000001
100
AcDbArc
 50
270.0
 51
0.0
  0
LINE
  5
15B
330
1F
100
AcDbEntity
  8
0
  6
Continuous
 62
     7
370
    15
100
AcDbLine
 10
207.2668359334
 20
222.684430358
 30
0.0
 11
207.2668359334
 21
231.2844301844
 31
0.0
  0
LINE
  5
15C
330
1F
100
AcDbEntity
  8
0
  6
Continuous
 62
     7
370
    15
100
AcDbLine
 10
201.7525420243
 20
222.684430358
 30
0.0
 11
201.7525420243
 21
231.2844301844
 31
0.0
  0
LINE
  5
15D
330
1F
100
AcDbEntity
  8
0
  6
Continuous
 62
     7
370
    15
100
AcDbLine
 10
207.2668359334
 20
231.2844301844
 30
0.0
 11
201.7525420243
 21
231.2844301844
 31
0.0
  0
LINE
  5
15E
330
1F
100
AcDbEntity
  8
0
  6
Continuous
 62
     7
370
    15
100
AcDbLine
 10
207.2668359334
 20
222.684430358
 30
0.0
 11
201.7525420243
 21
222.684430358
 31
0.0
  0
LINE
  5
15F
330
1F
100
AcDbEntity
  8
0
  6
Continuous
 62
     7
370
    15
100
AcDbLine
 10
200.6382853443
 20
234.5844301665
 30
0.0
 11
175.8261755759
 21
234.5844301665
 31
0.0
  0
LINE
  5
160
330
1F
100
AcDbEntity
  8
0
  6
Continuous
 62
     7
370
    15
100
AcDbLine
 10
200.6382853443
 20
231.2844301844
 30
0.0
 11
200.6382853443
 21
234.5844301665
 31
0.0
  0
LINE
  5
161
330
1F
100
AcDbEntity
  8
0
  6
Continuous
 62
     7
370
    15
100
AcDbLine
 10
200.6382853443
 20
220.1844304138
 30
0.0
 11
200.6382853443
 21
222.684430358
 31
0.0
  0
LINE
  5
162
330
1F
100
AcDbEntity
  8
0
  6
Continuous
 62
     7
370
    15
100
AcDbLine
 10
175.8261755759
 20
220.1844304138
 30
0.0
 11
200.6382853443
 21
220.1844304138
 31
0.0
  0
LINE
  5
163
330
1F
100
AcDbEntity
  8
0
  6
Continuous
 62
     7
370
    15
100
AcDbLine
 10
175.8261755759
 20
220.1844304138
 30
0.0
 11
175.8261755759
 21
234.5844301665
 31
0.0
  0
LINE
  5
164
330
1F
100
AcDbEntity
  8
0
  6
Continuous
 62
     7
370
    15
100
AcDbLine
 10
200.6382853443
 20
231.2844301844
 30
0.0
 11
201.7525420243
 21
231.2844301844
 31
0.0
  0
LINE
  5
165
330
1F
100
AcDbEntity
  8
0
  6
Continuous
 62
     7
370
    15
100
AcDbLine
 10
200.6382853443
 20
222.684430358
 30
0.0
 11
201.7525420243
 21
222.684430358
 31
0.0
  0
LINE
  5
166
330
1F
100
AcDbEntity
  8
0
  6
Continuous
 62
     7
370
    15
100
AcDbLine
 10
202.6581377442
 20
235.3817810574
 30
0.0
 11
200.7659063394
 21
235.3817810574
 31
0.0
  0
ARC
  5
167
330
1F
100
AcDbEntity
  8
0
  6
Continuous
 62
     7
370
    15
100
AcDbCircle
 10
202.1126754108
 20
234.7573335331
 30
0.0
 40
1.484493732680815
100
AcDbArc
 50
155.1245711858
 51
186.6885899343
  0
ARC
  5
168
330
1F
100
AcDbEntity
  8
0
  6
Continuous
 62
     7
370
    15
100
AcDbCircle
 10
177.0821198073
 20
234.7783978398
 30
0.0
 40
1.270834123965149
100
AcDbArc
 50
151.5183032493
 51
188.7793817042
  0
LINE
  5
169
330
1F
100
AcDbEntity
  8
0
  6
Continuous
 62
     7
370
    15
100
AcDbLine
 10
175.9650953765
 20
235.3844306701
 30
0.0
 11
203.3308953697
 21
235.3844306701
 31
0.0
  0
LINE
  5
16A
330
1F
100
AcDbEntity
  8
0
  6
Continuous
 62
     7
370
    15
100
AcDbLine
 10
203.3308953697
 20
235.3844306701
 30
0.0
 11
202.6581377442
 21
235.3817810574
 31
0.0
  0
LINE
  5
16B
330
1F
100
AcDbEntity
  8
0
  6
Continuous
 62
     7
370
    15
100
AcDbLine
 10
200.7659063394
 20
219.3870795229
 30
0.0
 11
202.6581377442
 21
219.3870795229
 31
0.0
  0
LINE
  5
16C
330
1F
100
AcDbEntity
  8
0
  6
Continuous
 62
     7
370
    15
100
AcDbLine
 10
202.6581377442
 20
219.3870795229
 30
0.0
 11
203.3308953697
 21
219.3844299102
 31
0.0
  0
LINE
  5
16D
330
1F
100
AcDbEntity
  8
0
  6
Continuous
 62
     7
370
    15
100
AcDbLine
 10
203.3308953697
 20
219.3844299102
 30
0.0
 11
175.9650953765
 21
219.3844299102
 31
0.0
  0
ARC
  5
16E
330
1F
100
AcDbEntity
  8
0
  6
Continuous
 62
     7
370
    15
100
AcDbCircle
 10
177.0821198073
 20
219.9904627406
 30
0.0
 40
1.270834123965153
100
AcDbArc
 50
171.2206182958
 51
208.4816967507
  0
ARC
  5
16F
330
1F
100
AcDbEntity
  8
0
  6
Continuous
 62
     7
370
    15
100
AcDbCircle
 10
202.1126754108
 20
220.0115270472
 30
0.0
 40
1.484493732680827
100
AcDbArc
 50
173.3114100657
 51
204.8754288142
  0
LINE
  5
170
330
1F
100
AcDbEntity
  8
0
  6
Continuous
 62
     7
370
    15
100
AcDbLine
 10
200.7659063394
 20
234.5844301665
 30
0.0
 11
200.7659063394
 21
235.3817810574
 31
0.0
  0
LINE
  5
171
330
1F
100
AcDbEntity
  8
0
  6
Continuous
 62
     7
370
    15
100
AcDbLine
 10
200.7772088701
 20
234.5844301665
 30
0.0
 11
200.7772088701
 21
231.2844301844
 31
0.0
  0
LINE
  5
172
330
1F
100
AcDbEntity
  8
0
  6
Continuous
 62
     7
370
    15
100
AcDbLine
 10
200.7659063394
 20
219.3870795229
 30
0.0
 11
200.7659063394
 21
220.1844304138
 31
0.0
  0
LINE
  5
173
330
1F
100
AcDbEntity
  8
0
  6
Continuous
 62
     7
370
    15
100
AcDbLine
 10
200.7772088701
 20
222.684430358
 30
0.0
 11
200.7772088701
 21
220.1844304138
 31
0.0
  0
LINE
  5
174
330
1F
100
AcDbEntity
  8
0
  6
Continuous
 62
     7
370
    15
100
AcDbLine
 10
206.7659110481
 20
219.3844299102
 30
0.0
 11
203.3308953697
 21
219.3844299102
 31
0.0
  0
LINE
  5
175
330
1F
100
AcDbEntity
  8
0
  6
Continuous
 62
     7
370
    15
100
AcDbLine
 10
202.6581377442
 20
219.3870795229
 30
0.0
 11
202.6581377442
 21
220.1844304138
 31
0.0
  0
LINE
  5
176
330
1F
100
AcDbEntity
  8
0
  6
Continuous
 62
     7
370
    15
100
AcDbLine
 10
206.7659110481
 20
220.1844304138
 30
0.0
 11
202.6581377442
 21
220.1844304138
 31
0.0
  0
LINE
  5
177
330
1F
100
AcDbEntity
  8
0
  6
Continuous
 62
     7
370
    15
100
AcDbLine
 10
202.6581377442
 20
234.5844301665
 30
0.0
 11
202.6581377442
 21
235.3817810574
 31
0.0
  0
LINE
  5
178
330
1F
100
AcDbEntity
  8
0
  6
Continuous
 62
     7
370
    15
100
AcDbLine
 10
206.7659110481
 20
235.3844306701
 30
0.0
 11
203.3308953697
 21
235.3844306701
 31
0.0
  0
LINE
  5
179
330
1F
100
AcDbEntity
  8
0
  6
Continuous
 62
     7
370
    15
100
AcDbLine
 10
206.7659110481
 20
234.5844301665
 30
0.0
 11
202.6581377442
 21
234.5844301665
 31
0.0
  0
LINE
  5
17A
330
1F
100
AcDbEntity
  8
0
  6
Continuous
 62
     7
370
    15
100
AcDbLine
 10
200.7659063394
 20
220.1844304138
 30
0.0
 11
202.6581377442
 21
220.1844304138
 31
0.0
  0
LINE
  5
17B
330
1F
100
AcDbEntity
  8
0
  6
Continuous
 62
     7
370
    15
100
AcDbLine
 10
200.7659063394
 20
234.5844301665
 30
0.0
 11
202.6581377442
 21
234.5844301665
 31
0.0
  0
LINE
  5
17C
330
1F
100
AcDbEntity
  8
0
  6
Continuous
 62
     7
370
    15
100
AcDbLine
 10
201.8359065706
 20
235.6844301605
 30
0.0
 11
206.2359065468
 21
235.6844301605
 31
0.0
  0
LINE
  5
17D
330
1F
100
AcDbEntity
  8
0
  6
Continuous
 62
     7
370
    15
100
AcDbLine
 10
201.9359082634
 20
218.5844303378
 30
0.0
 11
206.1359123046
 21
218.5844303378
 31
0.0
  0
LINE
  5
17E
330
1F
100
AcDbEntity
  8
0
  6
Continuous
 62
     7
370
    15
100
AcDbLine
 10
201.9359082634
 20
218.9844305897
 30
0.0
 11
206.1359123046
 21
218.9844305897
 31
0.0
  0
ARC
  5
17F
330
1F
100
AcDbEntity
  8
0
  6
Continuous
 62
     7
370
    15
100
AcDbCircle
 10
184.2318536518
 20
227.3844302902
 30
0.0
 40
16.9040399539924
100
AcDbArc
 50
154.7902236235
 51
205.2097763765
  0
SPLINE
  5
180
330
1F
100
AcDbEntity
  8
0
  6
Continuous
 62
     7
370
    15
100
AcDbSpline
210
0.0
220
0.0
230
1.0
 70
     8
 71
     3
 72
    12
 73
     8
 74
     0
 42
0.00000001
 43
0.00000001
 40
0.0
 40
0.0
 40
0.0
 40
0.0
 40
0.1818718117469106
 40
0.3633430903355291
 40
0.5550787262324879
 40
0.7712653591745121
 40
1.0
 40
1.0
 40
1.0
 40
1.0
 10
169.0702275092349
 20
219.3844299101833
 30
0.0
 10
169.094088319841
 20
219.3917516068838
 30
0.0
 10
169.1417573928012
 20
219.4063788758382
 30
0.0
 10
169.1564947393891
 20
219.5183681534045
 30
0.0
 10
169.129269331978
 20
219.6877646238483
 30
0.0
 10
169.0575928455432
 20
219.916177811217
 30
0.0
 10
168.9785073043452
 20
220.0933473232277
 30
0.0
 10
168.937849318479
 20
220.1844304138425
 30
0.0
  0
LINE
  5
181
330
1F
100
AcDbEntity
  8
0
  6
Continuous
 62
     7
370
    15
100
AcDbLine
 10
168.6858632321
 20
220.1389292525
 30
0.0
 11
169.0403097028
 21
219.3844299102
 31
0.0
  0
ARC
  5
182
330
1F
100
AcDbEntity
  8
0
  6
Continuous
 62
     7
370
    15
100
AcDbCircle
 10
183.9565701732
 20
227.3844302902
 30
0.0
 40
16.90241922828409
100
AcDbArc
 50
154.6170368419
 51
205.3829631581
  0
LINE
  5
183
330
1F
100
AcDbEntity
  8
0
  6
Continuous
 62
     7
370
    15
100
AcDbLine
 10
169.0403097028
 20
235.3844306701
 30
0.0
 11
168.6858632321
 21
234.6299313278
 31
0.0
  0
SPLINE
  5
184
330
1F
100
AcDbEntity
  8
0
  6
Continuous
 62
     7
370
    15
100
AcDbSpline
210
0.0
220
0.0
230
1.0
 70
     8
 71
     3
 72
    12
 73
     8
 74
     0
 42
0.00000001
 43
0.00000001
 40
0.0
 40
0.0
 40
0.0
 40
0.0
 40
0.2510217007323472
 40
0.5023984111293668
 40
0.7402769038154375
 40
0.9473073416423178
 40
1.0
 40
1.0
 40
1.0
 40
1.0
 10
168.937849318479
 20
234.5844301664833
 30
0.0
 10
168.9821661213214
 20
234.6843123887634
 30
0.0
 10
169.0708624024371
 20
234.8842180926416
 30
0.0
 10
169.1458689518479
 20
235.1429519484111
 30
0.0
 10
169.1573539866979
 20
235.3201822352183
 30
0.0
 10
169.1157097878645
 20
235.3806313593734
 30
0.0
 10
169.0778986402016
 20
235.3837898708824
 30
0.0
 10
169.0702275092349
 20
235.3844306701425
 30
0.0
  0
LINE
  5
185
330
1F
100
AcDbEntity
  8
0
  6
Continuous
 62
     7
370
    15
100
AcDbLine
 10
169.0702275092
 20
219.3844299102
 30
0.0
 11
169.0403097028
 21
219.3844299102
 31
0.0
  0
LINE
  5
186
330
1F
100
AcDbEntity
  8
0
  6
Continuous
 62
     7
370
    15
100
AcDbLine
 10
169.0702275092
 20
235.3844306701
 30
0.0
 11
169.0403097028
 21
235.3844306701
 31
0.0
  0
LINE
  5
187
330
1F
100
AcDbEntity
  8
0
  6
Continuous
 62
     7
370
    15
100
AcDbLine
 10
170.9273294265
 20
234.5844301665
 30
0.0
 11
168.9378493185
 21
234.5844301665
 31
0.0
  0
LINE
  5
188
330
1F
100
AcDbEntity
  8
0
  6
Continuous
 62
     7
370
    15
100
AcDbLine
 10
170.9273294265
 20
220.1844304138
 30
0.0
 11
170.9273294265
 21
234.5844301665
 31
0.0
  0
LINE
  5
189
330
1F
100
AcDbEntity
  8
0
  6
Continuous
 62
     7
370
    15
100
AcDbLine
 10
168.9378493185
 20
220.1844304138
 30
0.0
 11
170.9273294265
 21
220.1844304138
 31
0.0
  0
LWPOLYLINE
  5
18A
330
1F
100
AcDbEntity
  8
0
  6
Continuous
 62
     7
370
    15
100
AcDbPolyline
 90
        9
 70
   128
 43
0.0
 10
170.9273294265
 20
234.5844301665
 10
170.9220693166
 20
234.7405026005
 10
170.9065013284
 20
234.8905768515
 10
170.8812140579
 20
235.0288866358
 10
170.8471872563
 20
235.1501154983
 10
170.8057247753
 20
235.249605895
 10
170.7584210391
 20
235.323534281
 10
170.7070902641
 20
235.3690582597
 10
170.6537105794
 20
235.3844306701
  0
LINE
  5
18B
330
1F
100
AcDbEntity
  8
0
  6
Continuous
 62
     7
370
    15
100
AcDbLine
 10
169.0702275092
 20
235.3844306701
 30
0.0
 11
170.6537105794
 21
235.3844306701
 31
0.0
  0
LWPOLYLINE
  5
18C
330
1F
100
AcDbEntity
  8
0
  6
Continuous
 62
     7
370
    15
100
AcDbPolyline
 90
        9
 70
   128
 43
0.0
 10
170.9273294265
 20
220.1844304138
 10
170.9220693166
 20
220.0283579798
 10
170.9065013284
 20
219.8782837288
 10
170.8812140579
 20
219.7399739446
 10
170.8471872563
 20
219.618745082
 10
170.8057247753
 20
219.5192546853
 10
170.7584210391
 20
219.4453262994
 10
170.7070902641
 20
219.3998023206
 10
170.6537105794
 20
219.3844299102
  0
LINE
  5
18D
330
1F
100
AcDbEntity
  8
0
  6
Continuous
 62
     7
370
    15
100
AcDbLine
 10
170.6537105794
 20
219.3844299102
 30
0.0
 11
169.0702275092
 21
219.3844299102
 31
0.0
  0
LINE
  5
18E
330
1F
100
AcDbEntity
  8
0
  6
Continuous
 62
     7
370
    15
100
AcDbLine
 10
170.9273294265
 20
220.1844304138
 30
0.0
 11
175.8261755759
 21
220.1844304138
 31
0.0
  0
LINE
  5
18F
330
1F
100
AcDbEntity
  8
0
  6
Continuous
 62
     7
370
    15
100
AcDbLine
 10
175.9650953765
 20
219.3844299102
 30
0.0
 11
170.6537105794
 21
219.3844299102
 31
0.0
  0
LINE
  5
190
330
1F
100
AcDbEntity
  8
0
  6
Continuous
 62
     7
370
    15
100
AcDbLine
 10
175.8261755759
 20
234.5844301665
 30
0.0
 11
170.9273294265
 21
234.5844301665
 31
0.0
  0
LINE
  5
191
330
1F
100
AcDbEntity
  8
0
  6
Continuous
 62
     7
370
    15
100
AcDbLine
 10
170.6537105794
 20
235.3844306701
 30
0.0
 11
175.9650953765
 21
235.3844306701
 31
0.0
  0
LINE
  5
192
330
1F
100
AcDbEntity
  8
0
  6
Continuous
 62
     7
370
    15
100
AcDbLine
 10
196.3669196422
 20
235.3879007781
 30
0.0
 11
199.3669182713
 21
235.3879007781
 31
0.0
  0
SPLINE
  5
193
330
1F
100
AcDbEntity
  8
0
  6
Continuous
 62
     7
370
    15
100
AcDbSpline
210
0.0
220
0.0
230
1.0
 70
     8
 71
     3
 72
    16
 73
    12
 74
     0
 42
0.00000001
 43
0.00000001
 40
0.0
 40
0.0
 40
0.0
 40
0.0
 40
0.1207046053305122
 40
0.2414117485228161
 40
0.3621187928579281
 40
0.4828244150315569
 40
0.6035308798966444
 40
0.7242368975539513
 40
0.8449447291159179
 40
0.965651490604193
 40
1.0
 40
1.0
 40
1.0
 40
1.0
 10
202.2082046324954
 20
214.4320587897304
 30
0.0
 10
202.2276088052768
 20
214.4347315031762
 30
0.0
 10
202.2664175588201
 20
214.4400769862626
 30
0.0
 10
202.271336239236
 20
214.7310225534343
 30
0.0
 10
202.2341274255162
 20
215.1843592359943
 30
0.0
 10
202.1572099795344
 20
215.7518923622176
 30
0.0
 10
202.0533972708278
 20
216.3402106433447
 30
0.0
 10
201.9372864196859
 20
216.8669185995362
 30
0.0
 10
201.8302928341716
 20
217.2301943659622
 30
0.0
 10
201.7577170240326
 20
217.4006662327297
 30
0.0
 10
201.7381648893085
 20
217.3675144231437
 30
0.0
 10
201.7338336164698
 20
217.3601704919342
 30
0.0
  0
SPLINE
  5
194
330
1F
100
AcDbEntity
  8
0
  6
Continuous
 62
     7
370
    15
100
AcDbSpline
210
0.0
220
0.0
230
1.0
 70
     8
 71
     3
 72
    16
 73
    12
 74
     0
 42
0.00000001
 43
0.00000001
 40
0.0
 40
0.0
 40
0.0
 40
0.0
 40
0.1205802243391841
 40
0.2411628773538966
 40
0.3617456841750914
 40
0.4823269243095784
 40
0.602909006267166
 40
0.7234903463182457
 40
0.8440737935643892
 40
0.9646532105588711
 40
1.0
 40
1.0
 40
1.0
 40
1.0
 10
202.3787931258425
 20
240.308082596362
 30
0.0
 10
202.3981981378537
 20
240.3054097846507
 30
0.0
 10
202.4370085527236
 20
240.3000641073936
 30
0.0
 10
202.4419146684541
 20
240.0091201075648
 30
0.0
 10
202.4047089058912
 20
239.5557813807941
 30
0.0
 10
202.3277920205887
 20
238.9882519516372
 30
0.0
 10
202.2239739985503
 20
238.3999205100025
 30
0.0
 10
202.1078842576489
 20
237.8732635442593
 30
0.0
 10
202.0008560481992
 20
237.509795083154
 30
0.0
 10
201.928101334119
 20
237.3392447396131
 30
0.0
 10
201.9084517708165
 20
237.3728289622843
 30
0.0
 10
201.903997426723
 20
237.380442143381
 30
0.0
  0
SPLINE
  5
195
330
1F
100
AcDbEntity
  8
0
  6
Continuous
 62
     7
370
    15
100
AcDbSpline
210
0.0
220
0.0
230
1.0
 70
     8
 71
     3
 72
    16
 73
    12
 74
     0
 42
0.00000001
 43
0.00000001
 40
0.0
 40
0.0
 40
0.0
 40
0.0
 40
0.1205149410390626
 40
0.2410324159521506
 40
0.3615497921633819
 40
0.4820659444862974
 40
0.602582742138031
 40
0.723098798284932
 40
0.8436169604860408
 40
0.964131122291637
 40
1.0
 40
1.0
 40
1.0
 40
1.0
 10
217.7491769845233
 20
217.048477315307
 30
0.0
 10
217.7685812083817
 20
217.0511500626209
 30
0.0
 10
217.80739006408
 20
217.0564956134442
 30
0.0
 10
217.8123079783208
 20
217.347440672581
 30
0.0
 10
217.7751020558922
 20
217.8007795314803
 30
0.0
 10
217.698173656309
 20
218.3683058442723
 30
0.0
 10
217.594357727973
 20
218.9566452073362
 30
0.0
 10
217.4782709125987
 20
219.4832749414816
 30
0.0
 10
217.3712288427938
 20
219.8468447548239
 30
0.0
 10
217.2983718337242
 20
220.0174395652545
 30
0.0
 10
217.2786815018439
 20
219.9836257580668
 30
0.0
 10
217.2741652185664
 20
219.9758700364831
 30
0.0
  0
SPLINE
  5
196
330
1F
100
AcDbEntity
  8
0
  6
Continuous
 62
     7
370
    15
100
AcDbSpline
210
0.0
220
0.0
230
1.0
 70
     8
 71
     3
 72
    16
 73
    12
 74
     0
 42
0.00000001
 43
0.00000001
 40
0.0
 40
0.0
 40
0.0
 40
0.0
 40
0.1205175952378241
 40
0.2410320013546159
 40
0.3615491173087173
 40
0.4820659362327606
 40
0.6025827147512922
 40
0.7230988056430306
 40
0.8436143848329625
 40
0.9641311907118021
 40
1.0
 40
1.0
 40
1.0
 40
1.0
 10
217.9197654778704
 20
237.6916640707854
 30
0.0
 10
217.9391665102546
 20
237.6889927767548
 30
0.0
 10
217.9779680616354
 20
237.6836502593811
 30
0.0
 10
217.982890292204
 20
237.3926970696723
 30
0.0
 10
217.9456800082913
 20
236.9393607385491
 30
0.0
 10
217.8687646221894
 20
236.3718376329902
 30
0.0
 10
217.7649478592722
 20
235.7834950605402
 30
0.0
 10
217.6488513044121
 20
235.2568731736138
 30
0.0
 10
217.541807490436
 20
234.8932880575072
 30
0.0
 10
217.4689534574145
 20
234.7227015004984
 30
0.0
 10
217.4492625854806
 20
234.7565160629811
 30
0.0
 10
217.444746261333
 20
234.7642718152705
 30
0.0
  0
SPLINE
  5
197
330
1F
100
AcDbEntity
  8
0
  6
Continuous
 62
     7
370
    15
100
AcDbSpline
210
0.0
220
0.0
230
1.0
 70
    24
 71
     3
 72
    16
 73
    12
 74
     0
 42
0.00000001
 43
0.00000001
 40
0.0
 40
0.0
 40
0.0
 40
0.0
 40
0.0611070830567523
 40
0.1864721287805676
 40
0.3118330571648433
 40
0.4371952872640836
 40
0.5625581702422341
 40
0.6879217385907687
 40
0.8132849238669656
 40
0.938647153966206
 40
0.9999999999999999
 40
0.9999999999999999
 40
0.9999999999999999
 40
0.9999999999999999
 10
220.8260954076991
 20
220.5181945385042
 30
0.0
 10
220.831868400241
 20
220.5181945385042
 30
0.0
 10
220.8494850521064
 20
220.5181945385042
 30
0.0
 10
220.6310608005337
 20
220.5181945385042
 30
0.0
 10
220.2183015927607
 20
220.5181945385042
 30
0.0
 10
219.661844009754
 20
220.5181945385042
 30
0.0
 10
219.062737197254
 20
220.5181945385042
 30
0.0
 10
218.5040314676154
 20
220.5181945385042
 30
0.0
 10
218.0870905438601
 20
220.5181945385042
 30
0.0
 10
217.8640879767939
 20
220.5181945385042
 30
0.0
 10
217.8789034843396
 20
220.5181945385042
 30
0.0
 10
217.8837717230067
 20
220.5181945385042
 30
0.0
  0
SPLINE
  5
198
330
1F
100
AcDbEntity
  8
0
  6
Continuous
 62
     7
370
    15
100
AcDbSpline
210
0.0
220
0.0
230
1.0
 70
    24
 71
     3
 72
    16
 73
    12
 74
     0
 42
0.00000001
 43
0.00000001
 40
0.0
 40
0.0
 40
0.0
 40
0.0
 40
0.061009523075421
 40
0.18617441832717
 40
0.3113352028128819
 40
0.4364972869353167
 40
0.5616600228943136
 40
0.6868234431294724
 40
0.8119864809038844
 40
0.9371485650263193
 40
1.0
 40
1.0
 40
1.0
 40
1.0
 10
220.8260954076991
 20
234.0768253700438
 30
0.0
 10
220.8318683939737
 20
234.0768253700438
 30
0.0
 10
220.8494850267143
 20
234.0768253700438
 30
0.0
 10
220.6310610359465
 20
234.0768253700438
 30
0.0
 10
220.218300730271
 20
234.0768253700438
 30
0.0
 10
219.6618472243551
 20
234.0768253700438
 30
0.0
 10
219.0627252012579
 20
234.0768253700438
 30
0.0
 10
218.5040762371794
 20
234.0768253700438
 30
0.0
 10
218.0869234627941
 20
234.0768253700438
 30
0.0
 10
217.8634376554949
 20
234.0768253700438
 30
0.0
 10
217.8786493280667
 20
234.0768253700438
 30
0.0
 10
217.8837344701037
 20
234.0768253700438
 30
0.0
  0
SPLINE
  5
199
330
1F
100
AcDbEntity
  8
0
  6
Continuous
 62
     7
370
    15
100
AcDbSpline
210
0.0
220
0.0
230
1.0
 70
     8
 71
     3
 72
    19
 73
    15
 74
     0
 42
0.00000001
 43
0.00000001
 40
0.0
 40
0.0
 40
0.0
 40
0.0
 40
0.0039549680764079
 40
0.1157674400594964
 40
0.2280426972644299
 40
0.3355192133522786
 40
0.4377075149536659
 40
0.5348816862754312
 40
0.6283029051159624
 40
0.7302896280521846
 40
0.8413272539360634
 40
0.9641211673495057
 40
0.9937658995430381
 40
1.0
 40
1.0
 40
1.0
 40
1.0
 10
207.1541831547961
 20
232.9844300904873
 30
0.0
 10
207.1545779432248
 20
232.9844244776604
 30
0.0
 10
207.1661339519915
 20
232.9842601823767
 30
0.0
 10
207.1893649409575
 20
232.9691298122011
 30
0.0
 10
207.2328524915392
 20
232.9022326888744
 30
0.0
 10
207.2708420877482
 20
232.7975370956573
 30
0.0
 10
207.2943334225223
 20
232.6724603927
 30
0.0
 10
207.3056635046557
 20
232.5440239299519
 30
0.0
 10
207.3062568845982
 20
232.422854634965
 30
0.0
 10
207.2904861537205
 20
232.3136199473166
 30
0.0
 10
207.2501035588587
 20
232.2242046258474
 30
0.0
 10
207.1982428196542
 20
232.1891536001675
 30
0.0
 10
207.1635360566789
 20
232.1845433936068
 30
0.0
 10
207.1555676921721
 20
232.184447227434
 30
0.0
 10
207.1541831547961
 20
232.1844305181507
 30
0.0
  0
SPLINE
  5
19A
330
1F
100
AcDbEntity
  8
0
  6
Continuous
 62
     7
370
    15
100
AcDbSpline
210
0.0
220
0.0
230
1.0
 70
     8
 71
     3
 72
    30
 73
    26
 74
     0
 42
0.00000001
 43
0.00000001
 40
0.0
 40
0.0
 40
0.0
 40
0.0
 40
0.1247103694179049
 40
0.2494212538629267
 40
0.3741287605657861
 40
0.4367861067026452
 40
0.4681568693316649
 40
0.4838436015184199
 40
0.4916902619189387
 40
0.4956145732461674
 40
0.4975735455192779
 40
0.4985530859222146
 40
0.4990429068530641
 40
0.4992877305448237
 40
0.4994101857775361
 40
0.4994713701407683
 40
0.4995019623223844
 40
0.499520204312353
 40
0.4995326778067564
 40
0.5609189835222846
 40
0.6646208517203359
 40
0.7325800547444816
 40
0.8111467124947432
 40
0.9002980821952381
 40
1.0
 40
1.0
 40
1.0
 40
1.0
 10
207.2258800918803
 20
233.044322048277
 30
0.0
 10
207.2316480462596
 20
233.0425292270178
 30
0.0
 10
207.2431839788388
 20
233.0389435770955
 30
0.0
 10
207.3330194919236
 20
233.0171036139998
 30
0.0
 10
207.4405030486611
 20
232.9914227427238
 30
0.0
 10
207.5260570164521
 20
232.9710112422852
 30
0.0
 10
207.5701541743591
 20
232.9604774910671
 30
0.0
 10
207.5923825610317
 20
232.9551579081898
 30
0.0
 10
207.6035156362527
 20
232.9524924229021
 30
0.0
 10
207.6090857432061
 20
232.9511599506446
 30
0.0
 10
207.611869803044
 20
232.950491088471
 30
0.0
 10
207.6132607676236
 20
232.9501587229809
 30
0.0
 10
207.6139558239459
 20
232.9499902852036
 30
0.0
 10
207.6143038200957
 20
232.9499080412069
 30
0.0
 10
207.6144774169302
 20
232.9498654018676
 30
0.0
 10
207.6145645677162
 20
232.9498455456176
 30
0.0
 10
207.6146089701034
 20
232.9498338835813
 30
0.0
 10
207.6146342891145
 20
232.949829768307
 30
0.0
 10
207.6389489303405
 20
232.9416355845343
 30
0.0
 10
207.7074385555261
 20
232.9309105877118
 30
0.0
 10
207.7977536620196
 20
232.9093780632651
 30
0.0
 10
207.8814031015683
 20
232.8925113122491
 30
0.0
 10
207.9449312193569
 20
232.879552222583
 30
0.0
 10
207.9954445314911
 20
232.869928497456
 30
0.0
 10
208.0026750771652
 20
232.869463516372
 30
0.0
 10
208.0064923221812
 20
232.8692180374268
 30
0.0
  0
ELLIPSE
  5
19B
330
1F
100
AcDbEntity
  8
0
  6
Continuous
 62
     7
370
    15
100
AcDbEllipse
 10
207.8830178063
 20
234.1664054689
 30
0.0
 11
0.3906095144045594
 21
-0.08616383961160068
 31
0.0
210
0.0
220
0.0
230
1.0
 40
0.0142285888
 41
0.0
 42
6.283185307179586
  0
LINE
  5
19C
330
1F
100
AcDbEntity
  8
0
  6
Continuous
 62
     7
370
    15
100
AcDbLine
 10
207.0559099967
 20
221.634430279
 30
0.0
 11
207.0559099967
 21
220.6344301151
 31
0.0
  0
LINE
  5
19D
330
1F
100
AcDbEntity
  8
0
  6
Continuous
 62
     7
370
    15
100
AcDbLine
 10
207.0559099967
 20
220.6344301151
 30
0.0
 11
200.855909353
 21
220.6344301151
 31
0.0
  0
LINE
  5
19E
330
1F
100
AcDbEntity
  8
0
  6
Continuous
 62
     7
370
    15
100
AcDbLine
 10
200.855909353
 20
221.634430279
 30
0.0
 11
200.855909353
 21
220.6344301151
 31
0.0
  0
LINE
  5
19F
330
1F
100
AcDbEntity
  8
0
  6
Continuous
 62
     7
370
    15
100
AcDbLine
 10
207.0559099967
 20
221.634430279
 30
0.0
 11
200.855909353
 21
221.634430279
 31
0.0
  0
LINE
  5
1A0
330
1F
100
AcDbEntity
  8
0
  6
Continuous
 62
     7
370
    15
100
AcDbLine
 10
207.0559099967
 20
234.1344304653
 30
0.0
 11
200.855909353
 21
234.1344304653
 31
0.0
  0
LINE
  5
1A1
330
1F
100
AcDbEntity
  8
0
  6
Continuous
 62
     7
370
    15
100
AcDbLine
 10
207.0559099967
 20
234.1344304653
 30
0.0
 11
207.0559099967
 21
233.1344303013
 31
0.0
  0
LINE
  5
1A2
330
1F
100
AcDbEntity
  8
0
  6
Continuous
 62
     7
370
    15
100
AcDbLine
 10
207.0559099967
 20
233.1344303013
 30
0.0
 11
200.855909353
 21
233.1344303013
 31
0.0
  0
LINE
  5
1A3
330
1F
100
AcDbEntity
  8
0
  6
Continuous
 62
     7
370
    15
100
AcDbLine
 10
200.855909353
 20
234.1344304653
 30
0.0
 11
200.855909353
 21
233.1344303013
 31
0.0
  0
LWPOLYLINE
  5
1A4
330
1F
100
AcDbEntity
  8
0
  6
Continuous
 62
     7
370
    15
100
AcDbPolyline
 90
        3
 70
   128
 43
0.0
 10
200.7772088701
 20
221.0232917489
 10
200.779786771
 20
221.0171138206
 10
200.855909353
 20
220.6344301151
  0
LWPOLYLINE
  5
1A5
330
1F
100
AcDbEntity
  8
0
  6
Continuous
 62
     7
370
    15
100
AcDbPolyline
 90
        3
 70
   128
 43
0.0
 10
200.855909353
 20
234.1344304653
 10
200.779786771
 20
233.7517467597
 10
200.7772088701
 20
233.7455688314
  0
LINE
  5
1A6
330
1F
100
AcDbEntity
  8
0
  6
Continuous
 62
     7
370
    15
100
AcDbLine
 10
207.0559099967
 20
233.1344303013
 30
0.0
 11
207.0559099967
 21
232.9844300905
 31
0.0
  0
LINE
  5
1A7
330
1F
100
AcDbEntity
  8
0
  6
Continuous
 62
     7
370
    15
100
AcDbLine
 10
207.0559099967
 20
232.1844305182
 30
0.0
 11
207.0559099967
 21
231.2844301844
 31
0.0
  0
LINE
  5
1A8
330
1F
100
AcDbEntity
  8
0
  6
Continuous
 62
     7
370
    15
100
AcDbLine
 10
207.0559099967
 20
222.684430358
 30
0.0
 11
207.0559099967
 21
221.634430279
 31
0.0
  0
LINE
  5
1A9
330
1F
100
AcDbEntity
  8
0
  6
Continuous
 62
     7
370
    15
100
AcDbLine
 10
124.0559094305
 20
412.3844326743
 30
0.0
 11
139.0559090952
 21
412.3844326743
 31
0.0
  0
LINE
  5
1AA
330
1F
100
AcDbEntity
  8
0
  6
Continuous
 62
     7
370
    15
100
AcDbLine
 10
139.0559090952
 20
412.3844326743
 30
0.0
 11
139.0559090952
 21
42.384427906
 31
0.0
  0
LINE
  5
1AB
330
1F
100
AcDbEntity
  8
0
  6
Continuous
 62
     7
370
    15
100
AcDbLine
 10
139.0559090952
 20
42.384427906
 30
0.0
 11
124.0559094305
 21
42.384427906
 31
0.0
  0
LINE
  5
1AC
330
1F
100
AcDbEntity
  8
0
  6
Continuous
 62
     7
370
    15
100
AcDbLine
 10
124.0559094305
 20
412.3844326743
 30
0.0
 11
124.0559094305
 21
42.384427906
 31
0.0
  0
ARC
  5
1AD
330
1F
100
AcDbEntity
  8
0
  6
Continuous
 62
     7
370
    15
100
AcDbCircle
 10
139.0559094126
 20
412.3844302902
 30
0.0
 40
15.0
100
AcDbArc
 50
90.0
 51
180.0
  0
LINE
  5
1AE
330
1F
100
AcDbEntity
  8
0
  6
Continuous
 62
     7
370
    15
100
AcDbLine
 10
139.0559090952
 20
427.3844332704
 30
0.0
 11
139.0559090952
 21
412.3844326743
 31
0.0
  0
LINE
  5
1AF
330
1F
100
AcDbEntity
  8
0
  6
Continuous
 62
     7
370
    15
100
AcDbLine
 10
139.0559090952
 20
42.384427906
 30
0.0
 11
139.0559090952
 21
27.3844273099
 31
0.0
  0
ARC
  5
1B0
330
1F
100
AcDbEntity
  8
0
  6
Continuous
 62
     7
370
    15
100
AcDbCircle
 10
139.0559094126
 20
42.3844302902
 30
0.0
 40
15.00000000000001
100
AcDbArc
 50
180.0
 51
270.0
  0
LINE
  5
1B1
330
1F
100
AcDbEntity
  8
0
  6
Continuous
 62
     7
370
    15
100
AcDbLine
 10
220.0559065397
 20
427.3844332704
 30
0.0
 11
139.0559090952
 21
427.3844332704
 31
0.0
  0
LINE
  5
1B2
330
1F
100
AcDbEntity
  8
0
  6
Continuous
 62
     7
370
    15
100
AcDbLine
 10
220.0559065397
 20
427.3844332704
 30
0.0
 11
220.0559065397
 21
412.3844326743
 31
0.0
  0
LINE
  5
1B3
330
1F
100
AcDbEntity
  8
0
  6
Continuous
 62
     7
370
    15
100
AcDbLine
 10
220.0559065397
 20
412.3844326743
 30
0.0
 11
139.0559090952
 21
412.3844326743
 31
0.0
  0
LINE
  5
1B4
330
1F
100
AcDbEntity
  8
0
  6
Continuous
 62
     7
370
    15
100
AcDbLine
 10
200.055910712
 20
47.3844231376
 30
0.0
 11
200.055910712
 21
214.5718838358
 31
0.0
  0
LINE
  5
1B5
330
1F
100
AcDbEntity
  8
0
  6
Continuous
 62
     7
370
    15
100
AcDbLine
 10
200.055910712
 20
217.9116699183
 30
0.0
 11
200.055910712
 21
219.3844299102
 31
0.0
  0
LINE
  5
1B6
330
1F
100
AcDbEntity
  8
0
  6
Continuous
 62
     7
370
    15
100
AcDbLine
 10
200.055910712
 20
235.3844306701
 30
0.0
 11
200.055910712
 21
236.8438327023
 31
0.0
  0
LINE
  5
1B7
330
1F
100
AcDbEntity
  8
0
  6
Continuous
 62
     7
370
    15
100
AcDbLine
 10
200.055910712
 20
240.1865487257
 30
0.0
 11
200.055910712
 21
407.3844374427
 31
0.0
  0
LINE
  5
1B8
330
1F
100
AcDbEntity
  8
0
  6
Continuous
 62
     7
370
    15
100
AcDbLine
 10
200.055910712
 20
407.3844374427
 30
0.0
 11
144.0559089834
 21
407.3844374427
 31
0.0
  0
LINE
  5
1B9
330
1F
100
AcDbEntity
  8
0
  6
Continuous
 62
     7
370
    15
100
AcDbLine
 10
144.0559089834
 20
407.3844374427
 30
0.0
 11
144.0559089834
 21
47.3844231376
 31
0.0
  0
LINE
  5
1BA
330
1F
100
AcDbEntity
  8
0
  6
Continuous
 62
     7
370
    15
100
AcDbLine
 10
200.055910712
 20
47.3844231376
 30
0.0
 11
144.0559089834
 21
47.3844231376
 31
0.0
  0
LINE
  5
1BB
330
1F
100
AcDbEntity
  8
0
  6
Continuous
 62
     7
370
    15
100
AcDbLine
 10
220.0559065397
 20
42.384427906
 30
0.0
 11
220.0559065397
 21
218.3765228176
 31
0.0
  0
LINE
  5
1BC
330
1F
100
AcDbEntity
  8
0
  6
Continuous
 62
     7
370
    15
100
AcDbLine
 10
220.0559065397
 20
236.3603598708
 30
0.0
 11
220.0559065397
 21
412.3844326743
 31
0.0
  0
LINE
  5
1BD
330
1F
100
AcDbEntity
  8
0
  6
Continuous
 62
     7
370
    15
100
AcDbLine
 10
220.0559065397
 20
42.384427906
 30
0.0
 11
139.0559090952
 21
42.384427906
 31
0.0
  0
LINE
  5
1BE
330
1F
100
AcDbEntity
  8
0
  6
Continuous
 62
     7
370
    15
100
AcDbLine
 10
220.0559065397
 20
42.384427906
 30
0.0
 11
220.0559065397
 21
27.3844273099
 31
0.0
  0
LINE
  5
1BF
330
1F
100
AcDbEntity
  8
0
  6
Continuous
 62
     7
370
    15
100
AcDbLine
 10
220.0559065397
 20
27.3844273099
 30
0.0
 11
139.0559090952
 21
27.3844273099
 31
0.0
  0
LINE
  5
1C0
330
1F
100
AcDbEntity
  8
0
  6
Continuous
 62
     7
370
    15
100
AcDbLine
 10
224.0559071953
 20
407.3844374427
 30
0.0
 11
220.0559065397
 21
407.3844374427
 31
0.0
  0
LINE
  5
1C1
330
1F
100
AcDbEntity
  8
0
  6
Continuous
 62
     7
370
    15
100
AcDbLine
 10
224.0559071953
 20
47.3844231376
 30
0.0
 11
220.0559065397
 21
47.3844231376
 31
0.0
  0
LINE
  5
1C2
330
1F
100
AcDbEntity
  8
0
  6
Continuous
 62
     7
370
    15
100
AcDbLine
 10
224.0559071953
 20
32.3844374427
 30
0.0
 11
220.0559065397
 21
32.3844374427
 31
0.0
  0
LINE
  5
1C3
330
1F
100
AcDbEntity
  8
0
  6
Continuous
 62
     7
370
    15
100
AcDbLine
 10
224.0559071953
 20
422.3844231376
 30
0.0
 11
220.0559065397
 21
422.3844231376
 31
0.0
  0
LINE
  5
1C4
330
1F
100
AcDbEntity
  8
0
  6
Continuous
 62
     7
370
    15
100
AcDbLine
 10
390.4474223792
 20
524.5338286259
 30
0.0
 11
391.6474128901
 21
524.5338286259
 31
0.0
  0
LINE
  5
1C5
330
1F
100
AcDbEntity
  8
0
  6
Continuous
 62
     7
370
    15
100
AcDbLine
 10
390.3474206864
 20
527.0338262417
 30
0.0
 11
390.4474223792
 21
527.0338262417
 31
0.0
  0
LINE
  5
1C6
330
1F
100
AcDbEntity
  8
0
  6
Continuous
 62
     7
370
    15
100
AcDbLine
 10
390.4474223792
 20
533.0338309505
 30
0.0
 11
390.3474206864
 21
533.0338309505
 31
0.0
  0
LINE
  5
1C7
330
1F
100
AcDbEntity
  8
0
  6
Continuous
 62
     7
370
    15
100
AcDbLine
 10
386.1991758286
 20
590.033827255
 30
0.0
 11
385.4474122464
 21
589.7602121332
 31
0.0
  0
SPLINE
  5
1C8
330
1F
100
AcDbEntity
  8
0
  6
Continuous
 62
     7
370
    15
100
AcDbSpline
210
0.0
220
0.0
230
1.0
 70
     8
 71
     3
 72
    15
 73
    11
 74
     0
 42
0.00000001
 43
0.00000001
 40
0.0
 40
0.0
 40
0.0
 40
0.0
 40
0.1250744274509279
 40
0.2501503509278477
 40
0.3752913966326744
 40
0.5003035110630263
 40
0.6252877252304982
 40
0.7502617812752356
 40
0.8750784389565823
 40
1.0
 40
1.0
 40
1.0
 40
1.0
 10
389.2618561922914
 20
555.0916622378686
 30
0.0
 10
389.2357313221688
 20
555.350423822544
 30
0.0
 10
389.183481269442
 20
555.8679500869647
 30
0.0
 10
389.1046123218144
 20
556.6490626380984
 30
0.0
 10
389.0301867776337
 20
557.3862445922842
 30
0.0
 10
388.9631717521453
 20
558.0498195890705
 30
0.0
 10
388.9070649690005
 20
558.6055832461712
 30
0.0
 10
388.8645468813195
 20
559.0266799985172
 30
0.0
 10
388.8357145157058
 20
559.3122872746585
 30
0.0
 10
388.8313727645095
 20
559.3553222439114
 30
0.0
 10
388.829200977028
 20
559.3768487670282
 30
0.0
  0
SPLINE
  5
1C9
330
1F
100
AcDbEntity
  8
0
  6
Continuous
 62
     7
370
    15
100
AcDbSpline
210
0.0
220
0.0
230
1.0
 70
     8
 71
     3
 72
    15
 73
    11
 74
     0
 42
0.00000001
 43
0.00000001
 40
0.0
 40
0.0
 40
0.0
 40
0.0
 40
0.1249396391705264
 40
0.2497688640687143
 40
0.3747511162151848
 40
0.4997376379703598
 40
0.6247470391646603
 40
0.749879351211111
 40
0.8749423377432772
 40
1.0
 40
1.0
 40
1.0
 40
1.0
 10
385.8449454247361
 20
559.075465331302
 30
0.0
 10
385.8471278731311
 20
559.0538871552119
 30
0.0
 10
385.8514908412023
 20
559.0107498725489
 30
0.0
 10
385.8803404347133
 20
558.7250399154522
 30
0.0
 10
385.922845325842
 20
558.3038552365734
 30
0.0
 10
385.9789850054835
 20
557.7480807650766
 30
0.0
 10
386.0459699881005
 20
557.0845580427969
 30
0.0
 10
386.1203914259852
 20
556.3475101370849
 30
0.0
 10
386.1992191557882
 20
555.5665970580068
 30
0.0
 10
386.2514639151967
 20
555.0492415982404
 30
0.0
 10
386.2775857388383
 20
554.7905693747857
 30
0.0
  0
LINE
  5
1CA
330
1F
100
AcDbEntity
  8
0
  6
Continuous
 62
     7
370
    15
100
AcDbLine
 10
386.2773026168
 20
554.7904352643
 30
0.0
 11
387.8463799893
 21
539.2494629123
 31
0.0
  0
LINE
  5
1CB
330
1F
100
AcDbEntity
  8
0
  6
Continuous
 62
     7
370
    15
100
AcDbLine
 10
390.8312017857
 20
539.5508239963
 30
0.0
 11
389.2621244132
 21
555.0917963483
 31
0.0
  0
SPLINE
  5
1CC
330
1F
100
AcDbEntity
  8
0
  6
Continuous
 62
     7
370
    15
100
AcDbSpline
210
0.0
220
0.0
230
1.0
 70
     8
 71
     3
 72
     9
 73
     5
 74
     0
 42
0.00000001
 43
0.00000001
 40
0.0
 40
0.0
 40
0.0
 40
0.0
 40
0.4837383992592056
 40
0.9999999999999999
 40
0.9999999999999999
 40
0.9999999999999999
 40
0.9999999999999999
 10
388.0164618431932
 20
537.5680903889993
 30
0.0
 10
388.0259224206283
 20
537.5038589088764
 30
0.0
 10
388.045479638847
 20
537.3710774711797
 30
0.0
 10
388.0793223242498
 20
537.3349298461598
 30
0.0
 10
388.0967940031892
 20
537.3162682154039
 30
0.0
  0
SPLINE
  5
1CD
330
1F
100
AcDbEntity
  8
0
  6
Continuous
 62
     7
370
    15
100
AcDbSpline
210
0.0
220
0.0
230
1.0
 70
     8
 71
     3
 72
    11
 73
     7
 74
     0
 42
0.00000001
 43
0.00000001
 40
0.0
 40
0.0
 40
0.0
 40
0.0
 40
0.2484399281662082
 40
0.4978861587261837
 40
0.7483870213466268
 40
0.9999999999999999
 40
0.9999999999999999
 40
0.9999999999999999
 40
0.9999999999999999
 10
387.8466482102281
 20
539.2496193744996
 30
0.0
 10
387.8646608361788
 20
539.0711476671828
 30
0.0
 10
387.9007590479653
 20
538.7134813554381
 30
0.0
 10
387.9477849363261
 20
538.2486468618233
 30
0.0
 10
387.9865768078586
 20
537.8657646101061
 30
0.0
 10
388.0016213448689
 20
537.7184702864078
 30
0.0
 10
388.0091602742082
 20
537.6446600057939
 30
0.0
  0
SPLINE
  5
1CE
330
1F
100
AcDbEntity
  8
0
  6
Continuous
 62
     7
370
    15
100
AcDbSpline
210
0.0
220
0.0
230
1.0
 70
     8
 71
     3
 72
    19
 73
    15
 74
     0
 42
0.00000001
 43
0.00000001
 40
0.0
 40
0.0
 40
0.0
 40
0.0
 40
0.0802818883672179
 40
0.1534418481045241
 40
0.219341559902187
 40
0.2779472031135257
 40
0.3728452086266658
 40
0.4421543358402099
 40
0.5315379160060053
 40
0.6554821942039389
 40
0.7303560681291662
 40
0.8130802651975478
 40
0.9031427689244644
 40
1.0
 40
1.0
 40
1.0
 40
1.0
 10
388.0321080624467
 20
537.4854485490182
 30
0.0
 10
388.0674677026346
 20
537.3625717236087
 30
0.0
 10
388.1350501754574
 20
537.1277186631796
 30
0.0
 10
388.3322821640079
 20
536.8333102129228
 30
0.0
 10
388.557127415111
 20
536.6091851772362
 30
0.0
 10
388.8527914683255
 20
536.4161411315428
 30
0.0
 10
389.1947409191113
 20
536.2982348711703
 30
0.0
 10
389.6044985670023
 20
536.2684472605157
 30
0.0
 10
390.043583244862
 20
536.3707381888502
 30
0.0
 10
390.4301171311213
 20
536.6219750267021
 30
0.0
 10
390.7229479228382
 20
536.9626979274966
 30
0.0
 10
390.9037404832006
 20
537.3181557548592
 30
0.0
 10
391.0096312831938
 20
537.7451012379885
 30
0.0
 10
390.9773766404982
 20
538.0401651131948
 30
0.0
 10
390.960663074196
 20
538.1930599906304
 30
0.0
  0
SPLINE
  5
1CF
330
1F
100
AcDbEntity
  8
0
  6
Continuous
 62
     7
370
    15
100
AcDbSpline
210
0.0
220
0.0
230
1.0
 70
     8
 71
     3
 72
    11
 73
     7
 74
     0
 42
0.00000001
 43
0.00000001
 40
0.0
 40
0.0
 40
0.0
 40
0.0
 40
0.2477434628142177
 40
0.4969475109707789
 40
0.7476765810656706
 40
1.0
 40
1.0
 40
1.0
 40
1.0
 10
390.9844304263002
 20
538.0253846742967
 30
0.0
 10
390.9779967253884
 20
538.0900108497704
 30
0.0
 10
390.9650913933238
 20
538.2196442079239
 30
0.0
 10
390.9291015615429
 20
538.5775090281663
 30
0.0
 10
390.8841500347395
 20
539.0238373846789
 30
0.0
 10
390.8487098289335
 20
539.3747017149635
 30
0.0
 10
390.8309335648423
 20
539.5506898858407
 30
0.0
  0
LINE
  5
1D0
330
1F
100
AcDbEntity
  8
0
  6
Continuous
 62
     7
370
    15
100
AcDbLine
 10
391.1147261798
 20
549.20549495
 30
0.0
 11
391.1147112786
 21
549.5053137638
 31
0.0
  0
LINE
  5
1D1
330
1F
100
AcDbEntity
  8
0
  6
Continuous
 62
     7
370
    15
100
AcDbLine
 10
390.3147126376
 20
549.5053137638
 30
0.0
 11
390.3147126376
 21
549.2079461911
 31
0.0
  0
SPLINE
  5
1D2
330
1F
100
AcDbEntity
  8
0
  6
Continuous
 62
     7
370
    15
100
AcDbSpline
210
0.0
220
0.0
230
1.0
 70
    24
 71
     3
 72
    11
 73
     7
 74
     0
 42
0.00000001
 43
0.00000001
 40
0.0
 40
0.0
 40
0.0
 40
0.0
 40
0.0207833414794417
 40
0.3465559490330116
 40
0.6711464500042603
 40
0.9999999999999999
 40
0.9999999999999999
 40
0.9999999999999999
 40
0.9999999999999999
 10
390.3147126376039
 20
549.7916321256021
 30
0.0
 10
390.3147126376039
 20
549.7883104131063
 30
0.0
 10
390.3147126376041
 20
549.7329218593688
 30
0.0
 10
390.3147126376038
 20
549.6396894715934
 30
0.0
 10
390.3147126376039
 20
549.526974486557
 30
0.0
 10
390.3147126376039
 20
549.4924577298485
 30
0.0
 10
390.3147126376039
 20
549.4750867583612
 30
0.0
  0
SPLINE
  5
1D3
330
1F
100
AcDbEntity
  8
0
  6
Continuous
 62
     7
370
    15
100
AcDbSpline
210
0.0
220
0.0
230
1.0
 70
    24
 71
     3
 72
    11
 73
     7
 74
     0
 42
0.00000001
 43
0.00000001
 40
0.0
 40
0.0
 40
0.0
 40
0.0
 40
0.250483117174979
 40
0.4977293257689061
 40
0.7458640769072823
 40
1.0
 40
1.0
 40
1.0
 40
1.0
 10
391.1147261797792
 20
549.4726355173448
 30
0.0
 10
391.1147261797792
 20
549.4888493146752
 30
0.0
 10
391.1147261797792
 20
549.5210673839185
 30
0.0
 10
391.1147261797792
 20
549.6298516081573
 30
0.0
 10
391.1147261797792
 20
549.7686832147274
 30
0.0
 10
391.1147261797792
 20
549.8757099816046
 30
0.0
 10
391.1147261797792
 20
549.9298627474168
 30
0.0
  0
LINE
  5
1D4
330
1F
100
AcDbEntity
  8
0
  6
Continuous
 62
     7
370
    15
100
AcDbLine
 10
390.1079739272
 20
550.0338281491
 30
0.0
 11
390.3168882071
 21
549.7866029837
 31
0.0
  0
LINE
  5
1D5
330
1F
100
AcDbEntity
  8
0
  6
Continuous
 62
     7
370
    15
100
AcDbLine
 10
391.1147261798
 20
549.9298627474
 30
0.0
 11
391.1147261798
 21
550.0338281491
 31
0.0
  0
LINE
  5
1D6
330
1F
100
AcDbEntity
  8
0
  6
Continuous
 62
     7
370
    15
100
AcDbLine
 10
385.8383293092
 20
559.1718534925
 30
0.0
 11
385.8227128922
 21
559.6310774782
 31
0.0
  0
SPLINE
  5
1D7
330
1F
100
AcDbEntity
  8
0
  6
Continuous
 62
     7
370
    15
100
AcDbSpline
210
0.0
220
0.0
230
1.0
 70
     8
 71
     3
 72
    11
 73
     7
 74
     0
 42
0.00000001
 43
0.00000001
 40
0.0
 40
0.0
 40
0.0
 40
0.0
 40
0.1207591879391755
 40
0.4133945270735894
 40
0.7063577672814166
 40
1.0
 40
1.0
 40
1.0
 40
1.0
 10
387.8709967076188
 20
539.0084142782548
 30
0.0
 10
387.8809199639571
 20
538.9101138671217
 30
0.0
 10
387.9148902144287
 20
538.5736023961107
 30
0.0
 10
387.9622478235418
 20
538.1046829620448
 30
0.0
 10
388.0051337896371
 20
537.679956820663
 30
0.0
 10
388.012682912652
 20
537.6054079628474
 30
0.0
 10
388.0164618431932
 20
537.5680903889993
 30
0.0
  0
LINE
  5
1D8
330
1F
100
AcDbEntity
  8
0
  6
Continuous
 62
     7
370
    15
100
AcDbLine
 10
391.6474128901
 20
589.0338289537
 30
0.0
 11
391.347422713
 21
589.0338289537
 31
0.0
  0
LINE
  5
1D9
330
1F
100
AcDbEntity
  8
0
  6
Continuous
 62
     7
370
    15
100
AcDbLine
 10
391.347422713
 20
588.0338269272
 30
0.0
 11
391.2474210202
 21
588.0338269272
 31
0.0
  0
LINE
  5
1DA
330
1F
100
AcDbEntity
  8
0
  6
Continuous
 62
     7
370
    15
100
AcDbLine
 10
391.2474210202
 20
582.033829669
 30
0.0
 11
391.347422713
 21
582.033829669
 31
0.0
  0
LINE
  5
1DB
330
1F
100
AcDbEntity
  8
0
  6
Continuous
 62
     7
370
    15
100
AcDbLine
 10
391.347422713
 20
565.0338287451
 30
0.0
 11
391.2474210202
 21
565.0338287451
 31
0.0
  0
LINE
  5
1DC
330
1F
100
AcDbEntity
  8
0
  6
Continuous
 62
     7
370
    15
100
AcDbLine
 10
391.2474210202
 20
559.0338314869
 30
0.0
 11
391.347422713
 21
559.0338314869
 31
0.0
  0
LINE
  5
1DD
330
1F
100
AcDbEntity
  8
0
  6
Continuous
 62
     7
370
    15
100
AcDbLine
 10
776.6474182546
 20
533.0338309505
 30
0.0
 11
776.6474182546
 21
528.0338282683
 31
0.0
  0
LINE
  5
1DE
330
1F
100
AcDbEntity
  8
0
  6
Continuous
 62
     7
370
    15
100
AcDbLine
 10
791.6474188506
 20
533.0338309505
 30
0.0
 11
776.6474182546
 21
533.0338309505
 31
0.0
  0
LINE
  5
1DF
330
1F
100
AcDbEntity
  8
0
  6
Continuous
 62
     7
370
    15
100
AcDbLine
 10
791.6474188506
 20
533.0338309505
 30
0.0
 11
791.6474188506
 21
528.0338282683
 31
0.0
  0
LINE
  5
1E0
330
1F
100
AcDbEntity
  8
0
  6
Continuous
 62
     7
370
    15
100
AcDbLine
 10
791.6474188506
 20
528.0338282683
 30
0.0
 11
776.6474182546
 21
528.0338282683
 31
0.0
  0
LINE
  5
1E1
330
1F
100
AcDbEntity
  8
0
  6
Continuous
 62
     7
370
    15
100
AcDbLine
 10
406.6474134862
 20
533.0338309505
 30
0.0
 11
406.6474134862
 21
528.0338282683
 31
0.0
  0
LINE
  5
1E2
330
1F
100
AcDbEntity
  8
0
  6
Continuous
 62
     7
370
    15
100
AcDbLine
 10
406.6474134862
 20
528.0338282683
 30
0.0
 11
776.6474182546
 21
528.0338282683
 31
0.0
  0
LINE
  5
1E3
330
1F
100
AcDbEntity
  8
0
  6
Continuous
 62
     7
370
    15
100
AcDbLine
 10
406.6474134862
 20
533.0338309505
 30
0.0
 11
776.6474182546
 21
533.0338309505
 31
0.0
  0
ARC
  5
1E4
330
1F
100
AcDbEntity
  8
0
  6
Continuous
 62
     7
370
    15
100
AcDbCircle
 10
776.6474158704
 20
528.0338287332
 30
0.0
 40
15.0
100
AcDbArc
 50
270.0
 51
0.0
  0
LINE
  5
1E5
330
1F
100
AcDbEntity
  8
0
  6
Continuous
 62
     7
370
    15
100
AcDbLine
 10
776.6474182546
 20
528.0338282683
 30
0.0
 11
776.6474182546
 21
513.0338276722
 31
0.0
  0
LINE
  5
1E6
330
1F
100
AcDbEntity
  8
0
  6
Continuous
 62
     7
370
    15
100
AcDbLine
 10
406.6474134862
 20
513.0338276722
 30
0.0
 11
406.6474134862
 21
528.0338282683
 31
0.0
  0
LINE
  5
1E7
330
1F
100
AcDbEntity
  8
0
  6
Continuous
 62
     7
370
    15
100
AcDbLine
 10
406.6474134862
 20
513.0338276722
 30
0.0
 11
776.6474182546
 21
513.0338276722
 31
0.0
  0
LINE
  5
1E8
330
1F
100
AcDbEntity
  8
0
  6
Continuous
 62
     7
370
    15
100
AcDbLine
 10
391.6474128901
 20
533.0338309505
 30
0.0
 11
391.6474128901
 21
528.0338282683
 31
0.0
  0
LINE
  5
1E9
330
1F
100
AcDbEntity
  8
0
  6
Continuous
 62
     7
370
    15
100
AcDbLine
 10
391.6474128901
 20
528.0338282683
 30
0.0
 11
406.6474134862
 21
528.0338282683
 31
0.0
  0
LINE
  5
1EA
330
1F
100
AcDbEntity
  8
0
  6
Continuous
 62
     7
370
    15
100
AcDbLine
 10
391.6474128901
 20
533.0338309505
 30
0.0
 11
406.6474134862
 21
533.0338309505
 31
0.0
  0
ARC
  5
1EB
330
1F
100
AcDbEntity
  8
0
  6
Continuous
 62
     7
370
    15
100
AcDbCircle
 10
406.6474158704
 20
528.0338287332
 30
0.0
 40
15.00000000000006
100
AcDbArc
 50
180.0
 51
270.0
  0
LINE
  5
1EC
330
1F
100
AcDbEntity
  8
0
  6
Continuous
 62
     7
370
    15
100
AcDbLine
 10
390.4474223792
 20
531.0515965321
 30
0.0
 11
391.6474128901
 21
531.0515965321
 31
0.0
  0
LINE
  5
1ED
330
1F
100
AcDbEntity
  8
0
  6
Continuous
 62
     7
370
    15
100
AcDbLine
 10
390.4474223792
 20
528.9476196267
 30
0.0
 11
391.6474128901
 21
528.9476196267
 31
0.0
  0
LINE
  5
1EE
330
1F
100
AcDbEntity
  8
0
  6
Continuous
 62
     7
370
    15
100
AcDbLine
 10
390.4474223792
 20
528.9476196267
 30
0.0
 11
390.4474223792
 21
531.0515965321
 31
0.0
  0
LINE
  5
1EF
330
1F
100
AcDbEntity
  8
0
  6
Continuous
 62
     7
370
    15
100
AcDbLine
 10
390.4474223792
 20
536.0338295796
 30
0.0
 11
391.6474128901
 21
536.0338295796
 31
0.0
  0
LINE
  5
1F0
330
1F
100
AcDbEntity
  8
0
  6
Continuous
 62
     7
370
    15
100
AcDbLine
 10
391.6474128901
 20
533.0338309505
 30
0.0
 11
391.6474128901
 21
536.0338295796
 31
0.0
  0
LINE
  5
1F1
330
1F
100
AcDbEntity
  8
0
  6
Continuous
 62
     7
370
    15
100
AcDbLine
 10
390.4474223792
 20
536.0338295796
 30
0.0
 11
390.4474223792
 21
531.0515965321
 31
0.0
  0
LINE
  5
1F2
330
1F
100
AcDbEntity
  8
0
  6
Continuous
 62
     7
370
    15
100
AcDbLine
 10
391.6474128901
 20
528.0338282683
 30
0.0
 11
391.6474128901
 21
524.5338286259
 31
0.0
  0
LINE
  5
1F3
330
1F
100
AcDbEntity
  8
0
  6
Continuous
 62
     7
370
    15
100
AcDbLine
 10
390.4474223792
 20
524.5338286259
 30
0.0
 11
390.4474223792
 21
528.9476196267
 31
0.0
  0
LINE
  5
1F4
330
1F
100
AcDbEntity
  8
0
  6
Continuous
 62
     7
370
    15
100
AcDbLine
 10
390.3474206864
 20
527.0338262417
 30
0.0
 11
390.3474206864
 21
533.0338309505
 31
0.0
  0
ARC
  5
1F5
330
1F
100
AcDbEntity
  8
0
  6
Continuous
 62
     7
370
    15
100
AcDbCircle
 10
388.8474158704
 20
537.7338287332
 30
0.0
 40
2.800000000000011
100
AcDbArc
 50
0.0
 51
45.4024529621
  0
LINE
  5
1F6
330
1F
100
AcDbEntity
  8
0
  6
Continuous
 62
     7
370
    15
100
AcDbLine
 10
387.739762181
 20
540.3054262497
 30
0.0
 11
387.1428812682
 21
539.9552191594
 31
0.0
  0
LINE
  5
1F7
330
1F
100
AcDbEntity
  8
0
  6
Continuous
 62
     7
370
    15
100
AcDbLine
 10
384.3299592673
 20
536.2842137911
 30
0.0
 11
387.8733957946
 21
539.0031914213
 31
0.0
  0
LINE
  5
1F8
330
1F
100
AcDbEntity
  8
0
  6
Continuous
 62
     7
370
    15
100
AcDbLine
 10
383.599444741
 20
537.2362415292
 30
0.0
 11
384.3299592673
 21
536.2842137911
 31
0.0
  0
LINE
  5
1F9
330
1F
100
AcDbEntity
  8
0
  6
Continuous
 62
     7
370
    15
100
AcDbLine
 10
387.1428812682
 20
539.9552191594
 30
0.0
 11
383.599444741
 21
537.2362415292
 31
0.0
  0
LINE
  5
1FA
330
1F
100
AcDbEntity
  8
0
  6
Continuous
 62
     7
370
    15
100
AcDbLine
 10
391.6474128901
 20
536.0338295796
 30
0.0
 11
391.6474128901
 21
537.0338316061
 31
0.0
  0
LINE
  5
1FB
330
1F
100
AcDbEntity
  8
0
  6
Continuous
 62
     7
370
    15
100
AcDbLine
 10
390.4474223792
 20
536.6747657754
 30
0.0
 11
390.4474223792
 21
536.0338295796
 31
0.0
  0
LINE
  5
1FC
330
1F
100
AcDbEntity
  8
0
  6
Continuous
 62
     7
370
    15
100
AcDbLine
 10
383.3779240786
 20
535.5536992648
 30
0.0
 11
382.6474095523
 21
536.5057270028
 31
0.0
  0
LWPOLYLINE
  5
1FD
330
1F
100
AcDbEntity
  8
0
  6
Continuous
 62
     7
370
    15
100
AcDbPolyline
 90
        9
 70
   128
 43
0.0
 10
382.6474095523
 20
536.5057270028
 10
382.6657081782
 20
536.5197638967
 10
382.7198888003
 20
536.5613306858
 10
382.807865256
 20
536.6288403966
 10
382.9262549817
 20
536.7196853258
 10
383.0705280244
 20
536.8303860524
 10
383.2351113498
 20
536.9566808441
 10
383.4137017667
 20
537.093719373
 10
383.599444741
 20
537.2362415292
  0
LWPOLYLINE
  5
1FE
330
1F
100
AcDbEntity
  8
0
  6
Continuous
 62
     7
370
    15
100
AcDbPolyline
 90
        9
 70
   128
 43
0.0
 10
384.3299592673
 20
536.2842137911
 10
384.144216293
 20
536.1416990855
 10
383.9656258761
 20
536.0046605565
 10
383.8010425507
 20
535.8783657648
 10
383.6567695081
 20
535.7676650383
 10
383.5383797824
 20
535.6768126585
 10
383.4504033267
 20
535.6093103983
 10
383.3962227046
 20
535.5677361586
 10
383.3779240786
 20
535.5536992648
  0
ARC
  5
1FF
330
1F
100
AcDbEntity
  8
0
  6
Continuous
 62
     7
370
    15
100
AcDbCircle
 10
386.7474158704
 20
553.0538287332
 30
0.0
 40
2.200000000000133
100
AcDbArc
 50
103.5934783352
 51
268.1042765976
  0
LINE
  5
200
330
1F
100
AcDbEntity
  8
0
  6
Continuous
 62
     7
370
    15
100
AcDbLine
 10
383.2005853593
 20
554.4316004016
 30
0.0
 11
383.5342372596
 21
556.3238318064
 31
0.0
  0
LWPOLYLINE
  5
201
330
1F
100
AcDbEntity
  8
0
  6
Continuous
 62
     7
370
    15
100
AcDbPolyline
 90
        9
 70
   128
 43
0.0
 10
383.5342372596
 20
556.3238318064
 10
383.3899940192
 20
556.349260638
 10
383.2529629409
 20
556.3734228709
 10
383.1278527915
 20
556.39548404
 10
383.018999809
 20
556.4146767356
 10
382.9301739871
 20
556.430337856
 10
382.8644449651
 20
556.4419309594
 10
382.8240777194
 20
556.4490537145
 10
382.8104580581
 20
556.4514528015
  0
LINE
  5
202
330
1F
100
AcDbEntity
  8
0
  6
Continuous
 62
     7
370
    15
100
AcDbLine
 10
382.8104580581
 20
556.4514528015
 30
0.0
 11
387.1854985892
 21
581.2635625698
 31
0.0
  0
LWPOLYLINE
  5
203
330
1F
100
AcDbEntity
  8
0
  6
Continuous
 62
     7
370
    15
100
AcDbPolyline
 90
        9
 70
   128
 43
0.0
 10
387.1854985892
 20
581.2635625698
 10
387.200638169
 20
581.2608915367
 10
387.245475763
 20
581.2529864707
 10
387.3182828366
 20
581.2401491203
 10
387.4162579715
 20
581.2228749492
 10
387.535646075
 20
581.2018233337
 10
387.6718575894
 20
581.1778063872
 10
387.8196473061
 20
581.1517442562
 10
387.9733527839
 20
581.1246427693
  0
LINE
  5
204
330
1F
100
AcDbEntity
  8
0
  6
Continuous
 62
     7
370
    15
100
AcDbLine
 10
387.9733527839
 20
581.1246427693
 30
0.0
 11
383.1480140626
 21
553.758842776
 31
0.0
  0
LINE
  5
205
330
1F
100
AcDbEntity
  8
0
  6
Continuous
 62
     7
370
    15
100
AcDbLine
 10
383.1480140626
 20
553.758842776
 30
0.0
 11
383.2005853593
 21
554.4316004016
 31
0.0
  0
LWPOLYLINE
  5
206
330
1F
100
AcDbEntity
  8
0
  6
Continuous
 62
     7
370
    15
100
AcDbPolyline
 90
        5
 70
   128
 43
0.0
 10
386.0328043639
 20
588.1518888273
 10
385.7793207108
 20
588.8482945957
 10
385.5957682073
 20
589.3526057699
 10
385.4846353471
 20
589.6579640903
 10
385.4474122464
 20
589.7602121332
  0
LWPOLYLINE
  5
207
330
1F
100
AcDbEntity
  8
0
  6
Continuous
 62
     7
370
    15
100
AcDbPolyline
 90
        5
 70
   128
 43
0.0
 10
386.7924208581
 20
588.4038749137
 10
386.5355844437
 20
589.109545479
 10
386.3495434462
 20
589.6206627586
 10
386.2368906676
 20
589.930178503
 10
386.1991758286
 20
590.033827255
  0
LINE
  5
208
330
1F
100
AcDbEntity
  8
0
  6
Continuous
 62
     7
370
    15
100
AcDbLine
 10
387.0145226657
 20
588.0494284429
 30
0.0
 11
386.7924208581
 21
588.4038749137
 31
0.0
  0
LINE
  5
209
330
1F
100
AcDbEntity
  8
0
  6
Continuous
 62
     7
370
    15
100
AcDbLine
 10
386.9323278605
 20
588.0195106366
 30
0.0
 11
387.0145226657
 21
588.0494284429
 31
0.0
  0
SPLINE
  5
20A
330
1F
100
AcDbEntity
  8
0
  6
Continuous
 62
     7
370
    15
100
AcDbSpline
210
0.0
220
0.0
230
1.0
 70
     8
 71
     3
 72
    12
 73
     8
 74
     0
 42
0.00000001
 43
0.00000001
 40
0.0
 40
0.0
 40
0.0
 40
0.0
 40
0.2510217007323472
 40
0.5023984111293668
 40
0.7402769038154375
 40
0.9473073416423178
 40
1.0
 40
1.0
 40
1.0
 40
1.0
 10
386.032804363907
 20
588.1518888273099
 30
0.0
 10
386.0605133338751
 20
588.1075720244676
 30
0.0
 10
386.1159704614679
 20
588.0188757433517
 30
0.0
 10
386.3229671164229
 20
587.943869193941
 30
0.0
 10
386.5843562465198
 20
587.9323841590912
 30
0.0
 10
386.8009390486017
 20
587.9740283579245
 30
0.0
 10
386.9101675639475
 20
588.0118395055873
 30
0.0
 10
386.9323278605348
 20
588.0195106365541
 30
0.0
  0
LINE
  5
20B
330
1F
100
AcDbEntity
  8
0
  6
Continuous
 62
     7
370
    15
100
AcDbLine
 10
386.9323278605
 20
588.0195106366
 30
0.0
 11
387.508660072
 21
586.4360275664
 31
0.0
  0
LWPOLYLINE
  5
20C
330
1F
100
AcDbEntity
  8
0
  6
Continuous
 62
     7
370
    15
100
AcDbPolyline
 90
        9
 70
   128
 43
0.0
 10
386.756911391
 20
586.1624087193
 10
386.7713506162
 20
586.1676688292
 10
386.8141318499
 20
586.1832368173
 10
386.8836010634
 20
586.2085240879
 10
386.9770909488
 20
586.2425508895
 10
387.0910103261
 20
586.2840133705
 10
387.220978254
 20
586.3313171067
 10
387.3620028436
 20
586.3826478817
 10
387.508660072
 20
586.4360275664
  0
LINE
  5
20D
330
1F
100
AcDbEntity
  8
0
  6
Continuous
 62
     7
370
    15
100
AcDbLine
 10
386.756911391
 20
586.1624087193
 30
0.0
 11
386.0328043639
 21
588.1518888273
 31
0.0
  0
ARC
  5
20E
330
1F
100
AcDbEntity
  8
0
  6
Continuous
 62
     7
370
    15
100
AcDbCircle
 10
387.3374213765
 20
559.2228196517
 30
0.0
 40
1.600000000000023
100
AcDbArc
 50
347.034367059
 51
204.5705045339
  0
ARC
  5
20F
330
1F
100
AcDbEntity
  8
0
  6
Continuous
 62
     7
370
    15
100
AcDbCircle
 10
387.8501303418
 20
587.2458935875
 30
0.0
 40
0.5
100
AcDbArc
 50
36.8410865503
 51
90.0
  0
ARC
  5
210
330
1F
100
AcDbEntity
  8
0
  6
Continuous
 62
     7
370
    15
100
AcDbCircle
 10
380.6474158704
 20
581.8495147791
 30
0.0
 40
9.499999999999943
100
AcDbArc
 50
0.0
 51
36.8410865502
  0
LINE
  5
211
330
1F
100
AcDbEntity
  8
0
  6
Continuous
 62
     7
370
    15
100
AcDbLine
 10
390.1474173009
 20
581.8495134809
 30
0.0
 11
390.1474173009
 21
553.82382674
 31
0.0
  0
ARC
  5
212
330
1F
100
AcDbEntity
  8
0
  6
Continuous
 62
     7
370
    15
100
AcDbCircle
 10
377.8298288299
 20
582.9132192015
 30
0.0
 40
10.3000000000002
100
AcDbArc
 50
350.0
 51
20.0
  0
ARC
  5
213
330
1F
100
AcDbEntity
  8
0
  6
Continuous
 62
     7
370
    15
100
AcDbCircle
 10
387.7321177962
 20
588.7458935875
 30
0.0
 40
1.000000000000028
100
AcDbArc
 50
224.1440002858
 51
270.0
  0
LINE
  5
214
330
1F
100
AcDbEntity
  8
0
  6
Continuous
 62
     7
370
    15
100
AcDbLine
 10
387.7321178853
 20
587.7458917894
 30
0.0
 11
387.8501350819
 21
587.7458917894
 31
0.0
  0
LWPOLYLINE
  5
215
330
1F
100
AcDbEntity
  8
0
  6
Continuous
 62
     7
370
    15
100
AcDbPolyline
 90
        3
 70
   128
 43
0.0
 10
390.1474173009
 20
553.82382674
 10
389.9388010442
 20
552.6335443356
 10
389.5826334893
 20
551.917387078
  0
ARC
  5
216
330
1F
100
AcDbEntity
  8
0
  6
Continuous
 62
     7
370
    15
100
AcDbCircle
 10
386.6474158704
 20
553.8238287332
 30
0.0
 40
3.500000000000123
100
AcDbArc
 50
181.0639402281
 51
271.3221928089
  0
ARC
  5
217
330
1F
100
AcDbEntity
  8
0
  6
Continuous
 62
     7
370
    15
100
AcDbCircle
 10
377.8298288299
 20
582.9132192015
 30
0.0
 40
9.500000000000444
100
AcDbArc
 50
350.0
 51
20.0
  0
ARC
  5
218
330
1F
100
AcDbEntity
  8
0
  6
Continuous
 62
     7
370
    15
100
AcDbCircle
 10
387.2410336637
 20
554.52132426
 30
0.0
 40
4.698428302687893
100
AcDbArc
 50
170.0
 51
264.3261771658
  0
LINE
  5
219
330
1F
100
AcDbEntity
  8
0
  6
Continuous
 62
     7
370
    15
100
AcDbLine
 10
382.8104580581
 20
556.4514528015
 30
0.0
 11
382.6139862477
 21
555.3371961214
 31
0.0
  0
SPLINE
  5
21A
330
1F
100
AcDbEntity
  8
0
  6
Continuous
 62
     7
370
    15
100
AcDbSpline
210
0.0
220
0.0
230
1.0
 70
     8
 71
     3
 72
    12
 73
     8
 74
     0
 42
0.00000001
 43
0.00000001
 40
0.0
 40
0.0
 40
0.0
 40
0.0
 40
0.2340518500848962
 40
0.4681084143424835
 40
0.7021652771456403
 40
0.9362190989366869
 40
0.9999999999999999
 40
0.9999999999999999
 40
0.9999999999999999
 40
0.9999999999999999
 10
387.9443998276597
 20
554.7109450199464
 30
0.0
 10
387.7480069758613
 20
554.6915624093278
 30
0.0
 10
387.3552173166033
 20
554.6527967976945
 30
0.0
 10
386.8177183206451
 20
554.6475546523591
 30
0.0
 10
386.4442166106241
 20
554.6860373287859
 30
0.0
 10
386.2650235099546
 20
554.7406874752319
 30
0.0
 10
386.2937426189837
 20
554.7846431899463
 30
0.0
 10
386.2998927771455
 20
554.7940562465051
 30
0.0
  0
SPLINE
  5
21B
330
1F
100
AcDbEntity
  8
0
  6
Continuous
 62
     7
370
    15
100
AcDbSpline
210
0.0
220
0.0
230
1.0
 70
     8
 71
     3
 72
    11
 73
     7
 74
     0
 42
0.00000001
 43
0.00000001
 40
0.0
 40
0.0
 40
0.0
 40
0.0
 40
0.1986868986185168
 40
0.4657930972863268
 40
0.7328953533015765
 40
1.0
 40
1.0
 40
1.0
 40
1.0
 10
389.2403091132051
 20
555.0898293950418
 30
0.0
 10
389.2391262542744
 20
555.0653395103371
 30
0.0
 10
389.2363532102096
 20
555.0079264683696
 30
0.0
 10
388.9668151792501
 20
554.9008345046661
 30
0.0
 10
388.5197645751737
 20
554.7900278513729
 30
0.0
 10
388.1361886490242
 20
554.7373060424021
 30
0.0
 10
387.9443998276597
 20
554.7109450199464
 30
0.0
  0
SPLINE
  5
21C
330
1F
100
AcDbEntity
  8
0
  6
Continuous
 62
     7
370
    15
100
AcDbSpline
210
0.0
220
0.0
230
1.0
 70
     8
 71
     3
 72
    12
 73
     8
 74
     0
 42
0.00000001
 43
0.00000001
 40
0.0
 40
0.0
 40
0.0
 40
0.0
 40
0.2339657516747459
 40
0.4679297819377307
 40
0.7018962886705131
 40
0.9358626214262192
 40
1.0
 40
1.0
 40
1.0
 40
1.0
 10
387.3374159275895
 20
560.7228185036042
 30
0.0
 10
387.1413357447063
 20
560.7003124822501
 30
0.0
 10
386.7491768216069
 20
560.6553006051304
 30
0.0
 10
386.2462447543957
 20
560.3078115479257
 30
0.0
 10
385.9264323633781
 20
559.8143244978639
 30
0.0
 10
385.7985051756077
 20
559.3607398586017
 30
0.0
 10
385.8562942811673
 20
559.1177468874686
 30
0.0
 10
385.8687276780015
 20
559.0654666521409
 30
0.0
  0
SPLINE
  5
21D
330
1F
100
AcDbEntity
  8
0
  6
Continuous
 62
     7
370
    15
100
AcDbSpline
210
0.0
220
0.0
230
1.0
 70
     8
 71
     3
 72
    11
 73
     7
 74
     0
 42
0.00000001
 43
0.00000001
 40
0.0
 40
0.0
 40
0.0
 40
0.0
 40
0.197688317045171
 40
0.4651245499065082
 40
0.732557952030392
 40
1.0
 40
1.0
 40
1.0
 40
1.0
 10
388.8076389967805
 20
559.3725274302819
 30
0.0
 10
388.7893588019271
 20
559.5172784199699
 30
0.0
 10
388.7463488379063
 20
559.8578510948424
 30
0.0
 10
388.4208896272321
 20
560.3076240004195
 30
0.0
 10
387.9275938706132
 20
560.655350516158
 30
0.0
 10
387.5341440285343
 20
560.7003289321084
 30
0.0
 10
387.3374159275895
 20
560.7228185036042
 30
0.0
  0
SPLINE
  5
21E
330
1F
100
AcDbEntity
  8
0
  6
Continuous
 62
     7
370
    15
100
AcDbSpline
210
0.0
220
0.0
230
1.0
 70
     8
 71
     3
 72
    12
 73
     8
 74
     0
 42
0.00000001
 43
0.00000001
 40
0.0
 40
0.0
 40
0.0
 40
0.0
 40
0.2350177692308577
 40
0.4700293194518742
 40
0.705046154045834
 40
0.9400624094103337
 40
1.0
 40
1.0
 40
1.0
 40
1.0
 10
389.5134772002107
 20
539.1699726679185
 30
0.0
 10
389.317086423262
 20
539.1505947817599
 30
0.0
 10
388.924310066232
 20
539.1118395222177
 30
0.0
 10
388.3867022384292
 20
539.1065701073011
 30
0.0
 10
388.0136369309579
 20
539.1450997120489
 30
0.0
 10
387.834595235209
 20
539.1992095308675
 30
0.0
 10
387.8624958094506
 20
539.2425113007638
 30
0.0
 10
387.868165486992
 20
539.2513106562951
 30
0.0
  0
SPLINE
  5
21F
330
1F
100
AcDbEntity
  8
0
  6
Continuous
 62
     7
370
    15
100
AcDbSpline
210
0.0
220
0.0
230
1.0
 70
     8
 71
     3
 72
    11
 73
     7
 74
     0
 42
0.00000001
 43
0.00000001
 40
0.0
 40
0.0
 40
0.0
 40
0.0
 40
0.1989239528429226
 40
0.4659512217777148
 40
0.7329742825759883
 40
0.9999999999999999
 40
0.9999999999999999
 40
0.9999999999999999
 40
0.9999999999999999
 10
390.8094311892396
 20
539.5489688017228
 30
0.0
 10
390.8082573179526
 20
539.5244431824045
 30
0.0
 10
390.8055076905064
 20
539.4669953882958
 30
0.0
 10
390.5359022891117
 20
539.3598628121032
 30
0.0
 10
390.0888392528017
 20
539.2490552883922
 30
0.0
 10
389.7052651871041
 20
539.196333628831
 30
0.0
 10
389.5134772002107
 20
539.1699726679185
 30
0.0
  0
ARC
  5
220
330
1F
100
AcDbEntity
  8
0
  6
Continuous
 62
     7
370
    15
100
AcDbCircle
 10
390.7147050439
 20
549.4716045995
 30
0.0
 40
0.4000075631347871
100
AcDbArc
 50
0.1476654792
 51
179.5012206112
  0
ELLIPSE
  5
221
330
1F
100
AcDbEntity
  8
0
  6
Continuous
 62
     7
370
    15
100
AcDbEllipse
 10
390.7147152707
 20
549.2067203395
 30
0.0
 11
0.3991830274373456
 21
-0.02624604221148275
 31
0.0
210
0.0
220
0.0
230
1.0
 40
0.9763157485
 41
0.0
 42
6.283185307179586
  0
SPLINE
  5
222
330
1F
100
AcDbEntity
  8
0
  6
Continuous
 62
     7
370
    15
100
AcDbSpline
210
0.0
220
0.0
230
1.0
 70
     8
 71
     3
 72
    13
 73
     9
 74
     0
 42
0.00000001
 43
0.00000001
 40
0.0
 40
0.0
 40
0.0
 40
0.0
 40
0.0081702305184465
 40
0.2391540597909445
 40
0.4710939174990594
 40
0.693120466081165
 40
0.9042225443386908
 40
1.0
 40
1.0
 40
1.0
 40
1.0
 10
390.7147194086915
 20
549.9355549909928
 30
0.0
 10
390.7130605075585
 20
549.93516019562
 30
0.0
 10
390.6645021541723
 20
549.9236039835929
 30
0.0
 10
390.568370162099
 20
549.9004077541451
 30
0.0
 10
390.4455340883364
 20
549.8567658352705
 30
0.0
 10
390.3598849118287
 20
549.8193113480123
 30
0.0
 10
390.3158661148213
 20
549.7981648666531
 30
0.0
 10
390.319098139374
 20
549.7931860271425
 30
0.0
 10
390.320106857956
 20
549.7916321256021
 30
0.0
  0
SPLINE
  5
223
330
1F
100
AcDbEntity
  8
0
  6
Continuous
 62
     7
370
    15
100
AcDbSpline
210
0.0
220
0.0
230
1.0
 70
     8
 71
     3
 72
    13
 73
     9
 74
     0
 42
0.00000001
 43
0.00000001
 40
0.0
 40
0.0
 40
0.0
 40
0.0
 40
0.1252296879662176
 40
0.2499794292580681
 40
0.4999947319567645
 40
0.7499963794204163
 40
0.8747535951942165
 40
1.0
 40
1.0
 40
1.0
 40
1.0
 10
391.1147261797792
 20
549.9298627474168
 30
0.0
 10
391.1130117502604
 20
549.9298895002702
 30
0.0
 10
391.1095894618274
 20
549.9299429034457
 30
0.0
 10
391.0752107866579
 20
549.930419533162
 30
0.0
 10
390.9999299298677
 20
549.9314967408142
 30
0.0
 10
390.8912813343496
 20
549.9330463375608
 30
0.0
 10
390.7925702537844
 20
549.9344431206994
 30
0.0
 10
390.7407035200821
 20
549.9351838844041
 30
0.0
 10
390.7147194086915
 20
549.9355549909928
 30
0.0
  0
SPLINE
  5
224
330
1F
100
AcDbEntity
  8
0
  6
Continuous
 62
     7
370
    15
100
AcDbSpline
210
0.0
220
0.0
230
1.0
 70
     8
 71
     3
 72
    10
 73
     6
 74
     0
 42
0.00000001
 43
0.00000001
 40
0.0
 40
0.0
 40
0.0
 40
0.0
 40
0.0190107309040389
 40
0.5253203859619627
 40
1.0
 40
1.0
 40
1.0
 40
1.0
 10
390.7147194086915
 20
549.9355549909928
 30
0.0
 10
390.7162437586723
 20
549.9362926877933
 30
0.0
 10
390.7583658698266
 20
549.9566773415914
 30
0.0
 10
390.8408847038511
 20
549.9950920768821
 30
0.0
 10
390.9110402785242
 20
550.0211966887068
 30
0.0
 10
390.94498705262
 20
550.0338281490663
 30
0.0
  0
LINE
  5
225
330
1F
100
AcDbEntity
  8
0
  6
Continuous
 62
     7
370
    15
100
AcDbLine
 10
385.8381951987
 20
559.1747890212
 30
0.0
 11
385.8506525695
 21
559.0240190723
 31
0.0
  0
LINE
  5
226
330
1F
100
AcDbEntity
  8
0
  6
Continuous
 62
     7
370
    15
100
AcDbLine
 10
388.8304228722
 20
559.3675280907
 30
0.0
 11
388.7948388993
 21
559.5776940682
 31
0.0
  0
LINE
  5
227
330
1F
100
AcDbEntity
  8
0
  6
Continuous
 62
     7
370
    15
100
AcDbLine
 10
776.6474182546
 20
618.0338290506
 30
0.0
 11
791.6474188506
 21
618.0338290506
 31
0.0
  0
LINE
  5
228
330
1F
100
AcDbEntity
  8
0
  6
Continuous
 62
     7
370
    15
100
AcDbLine
 10
776.6474182546
 20
618.0338290506
 30
0.0
 11
776.6474182546
 21
633.0338287153
 31
0.0
  0
ARC
  5
229
330
1F
100
AcDbEntity
  8
0
  6
Continuous
 62
     7
370
    15
100
AcDbCircle
 10
776.6474158704
 20
618.0338287332
 30
0.0
 40
15.00000000000011
100
AcDbArc
 50
0.0
 51
90.0
  0
LINE
  5
22A
330
1F
100
AcDbEntity
  8
0
  6
Continuous
 62
     7
370
    15
100
AcDbLine
 10
776.6474182546
 20
618.0338290506
 30
0.0
 11
406.6474134862
 21
618.0338290506
 31
0.0
  0
LINE
  5
22B
330
1F
100
AcDbEntity
  8
0
  6
Continuous
 62
     7
370
    15
100
AcDbLine
 10
406.6474134862
 20
618.0338290506
 30
0.0
 11
406.6474134862
 21
633.0338287153
 31
0.0
  0
LINE
  5
22C
330
1F
100
AcDbEntity
  8
0
  6
Continuous
 62
     7
370
    15
100
AcDbLine
 10
776.6474182546
 20
633.0338287153
 30
0.0
 11
406.6474134862
 21
633.0338287153
 31
0.0
  0
LINE
  5
22D
330
1F
100
AcDbEntity
  8
0
  6
Continuous
 62
     7
370
    15
100
AcDbLine
 10
406.6474134862
 20
618.0338290506
 30
0.0
 11
391.6474128901
 21
618.0338290506
 31
0.0
  0
ARC
  5
22E
330
1F
100
AcDbEntity
  8
0
  6
Continuous
 62
     7
370
    15
100
AcDbCircle
 10
406.6474158704
 20
618.0338287332
 30
0.0
 40
15.00000000000011
100
AcDbArc
 50
90.0
 51
180.0
  0
LINE
  5
22F
330
1F
100
AcDbEntity
  8
0
  6
Continuous
 62
     7
370
    15
100
AcDbLine
 10
411.6474087178
 20
557.0338274338
 30
0.0
 11
411.6474087178
 21
613.0338291623
 31
0.0
  0
LINE
  5
230
330
1F
100
AcDbEntity
  8
0
  6
Continuous
 62
     7
370
    15
100
AcDbLine
 10
411.6474087178
 20
557.0338274338
 30
0.0
 11
771.6474230229
 21
557.0338274338
 31
0.0
  0
LINE
  5
231
330
1F
100
AcDbEntity
  8
0
  6
Continuous
 62
     7
370
    15
100
AcDbLine
 10
771.6474230229
 20
613.0338291623
 30
0.0
 11
771.6474230229
 21
557.0338274338
 31
0.0
  0
LINE
  5
232
330
1F
100
AcDbEntity
  8
0
  6
Continuous
 62
     7
370
    15
100
AcDbLine
 10
771.6474230229
 20
613.0338291623
 30
0.0
 11
411.6474087178
 21
613.0338291623
 31
0.0
  0
LINE
  5
233
330
1F
100
AcDbEntity
  8
0
  6
Continuous
 62
     7
370
    15
100
AcDbLine
 10
776.6474182546
 20
537.0338316061
 30
0.0
 11
406.6474134862
 21
537.0338316061
 31
0.0
  0
LINE
  5
234
330
1F
100
AcDbEntity
  8
0
  6
Continuous
 62
     7
370
    15
100
AcDbLine
 10
406.6474134862
 20
537.0338316061
 30
0.0
 11
406.6474134862
 21
618.0338290506
 31
0.0
  0
LINE
  5
235
330
1F
100
AcDbEntity
  8
0
  6
Continuous
 62
     7
370
    15
100
AcDbLine
 10
776.6474182546
 20
537.0338316061
 30
0.0
 11
776.6474182546
 21
618.0338290506
 31
0.0
  0
LINE
  5
236
330
1F
100
AcDbEntity
  8
0
  6
Continuous
 62
     7
370
    15
100
AcDbLine
 10
791.6474188506
 20
537.0338316061
 30
0.0
 11
791.6474188506
 21
618.0338290506
 31
0.0
  0
LINE
  5
237
330
1F
100
AcDbEntity
  8
0
  6
Continuous
 62
     7
370
    15
100
AcDbLine
 10
791.6474188506
 20
537.0338316061
 30
0.0
 11
776.6474182546
 21
537.0338316061
 31
0.0
  0
LINE
  5
238
330
1F
100
AcDbEntity
  8
0
  6
Continuous
 62
     7
370
    15
100
AcDbLine
 10
406.6474134862
 20
537.0338316061
 30
0.0
 11
391.6474128901
 21
537.0338316061
 31
0.0
  0
LINE
  5
239
330
1F
100
AcDbEntity
  8
0
  6
Continuous
 62
     7
370
    15
100
AcDbLine
 10
391.6474128901
 20
537.0338316061
 30
0.0
 11
391.6474128901
 21
618.0338290506
 31
0.0
  0
LINE
  5
23A
330
1F
100
AcDbEntity
  8
0
  6
Continuous
 62
     7
370
    15
100
AcDbLine
 10
771.6474230229
 20
533.0338309505
 30
0.0
 11
771.6474230229
 21
537.0338316061
 31
0.0
  0
LINE
  5
23B
330
1F
100
AcDbEntity
  8
0
  6
Continuous
 62
     7
370
    15
100
AcDbLine
 10
411.6474087178
 20
533.0338309505
 30
0.0
 11
411.6474087178
 21
537.0338316061
 31
0.0
  0
LINE
  5
23C
330
1F
100
AcDbEntity
  8
0
  6
Continuous
 62
     7
370
    15
100
AcDbLine
 10
786.6474087178
 20
533.0338309505
 30
0.0
 11
786.6474087178
 21
537.0338316061
 31
0.0
  0
LINE
  5
23D
330
1F
100
AcDbEntity
  8
0
  6
Continuous
 62
     7
370
    15
100
AcDbLine
 10
396.6474230229
 20
533.0338309505
 30
0.0
 11
396.6474230229
 21
537.0338316061
 31
0.0
  0
LINE
  5
23E
330
1F
100
AcDbEntity
  8
0
  6
Continuous
 62
     7
370
    15
100
AcDbLine
 10
791.6474188506
 20
537.0338316061
 30
0.0
 11
792.3147375523
 21
537.0338316061
 31
0.0
  0
ARC
  5
23F
330
1F
100
AcDbEntity
  8
0
  6
Continuous
 62
     7
370
    15
100
AcDbCircle
 10
792.3147336184
 20
537.5338287332
 30
0.0
 40
0.5000000000001582
100
AcDbArc
 50
270.0
 51
332.720387264
  0
ARC
  5
240
330
1F
100
AcDbEntity
  8
0
  6
Continuous
 62
     7
370
    15
100
AcDbCircle
 10
792.085267005
 20
532.5338287332
 30
0.0
 40
0.5
100
AcDbArc
 50
22.0243128371
 51
90.0
  0
ARC
  5
241
330
1F
100
AcDbEntity
  8
0
  6
Continuous
 62
     7
370
    15
100
AcDbCircle
 10
797.6474158704
 20
534.7838287332
 30
0.0
 40
5.500000000000155
100
AcDbArc
 50
202.024312837
 51
152.720387264
  0
LINE
  5
242
330
1F
100
AcDbEntity
  8
0
  6
Continuous
 62
     7
370
    15
100
AcDbLine
 10
792.08525967
 20
533.0338309505
 30
0.0
 11
791.6474188506
 21
533.0338309505
 31
0.0
  0
LINE
  5
243
330
1F
100
AcDbEntity
  8
0
  6
Continuous
 62
     7
370
    15
100
AcDbLine
 10
391.347422713
 20
556.2338287928
 30
0.0
 11
391.6474128901
 21
556.2348867752
 31
0.0
  0
LINE
  5
244
330
1F
100
AcDbEntity
  8
0
  6
Continuous
 62
     7
370
    15
100
AcDbLine
 10
391.6474128901
 20
558.2338253953
 30
0.0
 11
391.347422713
 21
558.2338253953
 31
0.0
  0
LINE
  5
245
330
1F
100
AcDbEntity
  8
0
  6
Continuous
 62
     7
370
    15
100
AcDbLine
 10
391.347422713
 20
556.2338287928
 30
0.0
 11
391.347422713
 21
558.2338253953
 31
0.0
  0
LINE
  5
246
330
1F
100
AcDbEntity
  8
0
  6
Continuous
 62
     7
370
    15
100
AcDbLine
 10
391.6474128901
 20
550.0338281491
 30
0.0
 11
391.347422713
 21
550.0338281491
 31
0.0
  0
LINE
  5
247
330
1F
100
AcDbEntity
  8
0
  6
Continuous
 62
     7
370
    15
100
AcDbLine
 10
391.347422713
 20
550.0338281491
 30
0.0
 11
391.347422713
 21
556.2338287928
 31
0.0
  0
ARC
  5
248
330
1F
100
AcDbEntity
  8
0
  6
Continuous
 62
     7
370
    15
100
AcDbCircle
 10
386.4474158704
 20
553.1338287332
 30
0.0
 40
3.100000000000023
100
AcDbArc
 50
192.3149181515
 51
270.0
  0
LINE
  5
249
330
1F
100
AcDbEntity
  8
0
  6
Continuous
 62
     7
370
    15
100
AcDbLine
 10
386.447414273
 20
550.0338281491
 30
0.0
 11
386.7575521409
 21
550.0338281491
 31
0.0
  0
LINE
  5
24A
330
1F
100
AcDbEntity
  8
0
  6
Continuous
 62
     7
370
    15
100
AcDbLine
 10
389.7728021085
 20
550.0338281491
 30
0.0
 11
391.347422713
 21
550.0338281491
 31
0.0
  0
LINE
  5
24B
330
1F
100
AcDbEntity
  8
0
  6
Continuous
 62
     7
370
    15
100
AcDbLine
 10
391.347422713
 20
556.2338287928
 30
0.0
 11
390.1474173009
 21
556.2338287928
 31
0.0
  0
LINE
  5
24C
330
1F
100
AcDbEntity
  8
0
  6
Continuous
 62
     7
370
    15
100
AcDbLine
 10
391.347422713
 20
558.2338253953
 30
0.0
 11
391.347422713
 21
582.2838301756
 31
0.0
  0
LINE
  5
24D
330
1F
100
AcDbEntity
  8
0
  6
Continuous
 62
     7
370
    15
100
AcDbLine
 10
391.347422713
 20
589.0338289537
 30
0.0
 11
391.347422713
 21
582.2838301756
 31
0.0
  0
LINE
  5
24E
330
1F
100
AcDbEntity
  8
0
  6
Continuous
 62
     7
370
    15
100
AcDbLine
 10
391.2474210202
 20
582.033829669
 30
0.0
 11
391.2474210202
 21
588.0338269272
 31
0.0
  0
LINE
  5
24F
330
1F
100
AcDbEntity
  8
0
  6
Continuous
 62
     7
370
    15
100
AcDbLine
 10
391.2474210202
 20
559.0338314869
 30
0.0
 11
391.2474210202
 21
565.0338287451
 31
0.0
  0
LINE
  5
250
330
1F
100
AcDbEntity
  8
0
  6
Continuous
 62
     7
370
    15
100
AcDbLine
 10
390.1474173009
 20
574.390644113
 30
0.0
 11
391.347422713
 21
574.0691031315
 31
0.0
  0
LINE
  5
251
330
1F
100
AcDbEntity
  8
0
  6
Continuous
 62
     7
370
    15
100
AcDbLine
 10
391.347422713
 20
573.0338300564
 30
0.0
 11
390.1474173009
 21
573.3553673127
 31
0.0
  0
LINE
  5
252
330
1F
100
AcDbEntity
  8
0
  6
Continuous
 62
     8
370
    15
100
AcDbLine
 10
391.6474128901
 20
582.2838301756
 30
0.0
 11
391.347422713
 21
582.2838301756
 31
0.0
  0
ENDSEC
  0
SECTION
  2
OBJECTS
  0
DICTIONARY
  5
C
330
0
100
AcDbDictionary
281
     1
  3
ACAD_GROUP
350
D
  3
ACAD_LAYOUT
350
1A
  3
ACAD_MLINESTYLE
350
17
  3
ACAD_PLOTSETTINGS
350
19
  3
ACAD_PLOTSTYLENAME
350
E
  0
DICTIONARY
  5
D
102
{ACAD_REACTORS
330
C
102
}
330
C
100
AcDbDictionary
281
     1
  0
DICTIONARY
  5
1A
102
{ACAD_REACTORS
330
C
102
}
330
C
100
AcDbDictionary
281
     1
  3
Layout1
350
1E
  3
Layout2
350
26
  3
Model
350
22
  0
DICTIONARY
  5
17
102
{ACAD_REACTORS
330
C
102
}
330
C
100
AcDbDictionary
281
     1
  3
Standard
350
18
  0
DICTIONARY
  5
19
102
{ACAD_REACTORS
330
C
102
}
330
C
100
AcDbDictionary
281
     1
  0
ACDBDICTIONARYWDFLT
  5
E
102
{ACAD_REACTORS
330
C
102
}
330
C
100
AcDbDictionary
281
     1
  3
Normal
350
F
100
AcDbDictionaryWithDefault
340
F
  0
LAYOUT
  5
1E
102
{ACAD_REACTORS
330
1A
102
}
330
1A
100
AcDbPlotSettings
  1

  2
none_device
  4

  6

 40
0.0
 41
0.0
 42
0.0
 43
0.0
 44
0.0
 45
0.0
 46
0.0
 47
0.0
 48
0.0
 49
0.0
140
0.0
141
0.0
142
1.0
143
1.0
 70
   688
 72
     0
 73
     0
 74
     5
  7

 75
    16
147
1.0
148
0.0
149
0.0
100
AcDbLayout
  1
Layout1
 70
     1
 71
     1
 10
0.0
 20
0.0
 11
420.0
 21
297.0
 12
0.0
 22
0.0
 32
0.0
 14
1.0000000000E+20
 24
1.0000000000E+20
 34
1.0000000000E+20
 15
-1.0000000000E+20
 25
-1.0000000000E+20
 35
-1.0000000000E+20
146
0.0
 13
0.0
 23
0.0
 33
0.0
 16
1.0
 26
0.0
 36
0.0
 17
0.0
 27
1.0
 37
0.0
 76
     0
330
1B
  0
LAYOUT
  5
26
102
{ACAD_REACTORS
330
1A
102
}
330
1A
100
AcDbPlotSettings
  1

  2
none_device
  4

  6

 40
0.0
 41
0.0
 42
0.0
 43
0.0
 44
0.0
 45
0.0
 46
0.0
 47
0.0
 48
0.0
 49
0.0
140
0.0
141
0.0
142
1.0
143
1.0
 70
   688
 72
     0
 73
     0
 74
     5
  7

 75
    16
147
1.0
148
0.0
149
0.0
100
AcDbLayout
  1
Layout2
 70
     1
 71
     2
 10
0.0
 20
0.0
 11
0.0
 21
0.0
 12
0.0
 22
0.0
 32
0.0
 14
0.0
 24
0.0
 34
0.0
 15
0.0
 25
0.0
 35
0.0
146
0.0
 13
0.0
 23
0.0
 33
0.0
 16
1.0
 26
0.0
 36
0.0
 17
0.0
 27
1.0
 37
0.0
 76
     0
330
23
  0
LAYOUT
  5
22
102
{ACAD_REACTORS
330
1A
102
}
330
1A
100
AcDbPlotSettings
  1

  2
none_device
  4

  6

 40
0.0
 41
0.0
 42
0.0
 43
0.0
 44
0.0
 45
0.0
 46
0.0
 47
0.0
 48
0.0
 49
0.0
140
0.0
141
0.0
142
1.0
143
1.0
 70
  1712
 72
     0
 73
     0
 74
     0
  7

 75
     0
147
1.0
148
0.0
149
0.0
100
AcDbLayout
  1
Model
 70
     1
 71
     0
 10
0.0
 20
0.0
 11
840.0
 21
594.0
 12
0.0
 22
0.0
 32
0.0
 14
0.0
 24
0.0
 34
0.0
 15
840.0
 25
594.0
 35
0.0
146
0.0
 13
0.0
 23
0.0
 33
0.0
 16
1.0
 26
0.0
 36
0.0
 17
0.0
 27
1.0
 37
0.0
 76
     0
330
1F
331
29
  0
MLINESTYLE
  5
18
102
{ACAD_REACTORS
330
17
102
}
330
17
100
AcDbMlineStyle
  2
Standard
 70
     0
  3

 62
   256
 51
90.0
 52
90.0
 71
     2
 49
0.5
 62
   256
  6
BYLAYER
 49
-0.5
 62
   256
  6
BYLAYER
  0
ACDBPLACEHOLDER
  5
F
102
{ACAD_REACTORS
330
E
102
}
330
E
  0
ENDSEC
  0
EOF
