  0
SECTION
  2
HEADER
  9
$ACADVER
  1
AC1015
  9
$ACADMAINTVER
 70
     6
  9
$DWGCODEPAGE
  3
DOS932
  9
$INSBASE
 10
0.0
 20
0.0
 30
0.0
  9
$EXTMIN
 10
0.0
 20
0.0
 30
0.0
  9
$EXTMAX
 10
840.0
 20
594.0
 30
0.0
  9
$LIMMIN
 10
0.0
 20
0.0
  9
$LIMMAX
 10
840.0
 20
594.0
  9
$ORTHOMODE
 70
     0
  9
$REGENMODE
 70
     1
  9
$FILLMODE
 70
     1
  9
$QTEXTMODE
 70
     0
  9
$MIRRTEXT
 70
     1
  9
$LTSCALE
 40
2.0
  9
$ATTMODE
 70
     1
  9
$TEXTSIZE
 40
7.0
  9
$TRACEWID
 40
1.0
  9
$TEXTSTYLE
  7
Standard
  9
$CLAYER
  8
0
  9
$CELTYPE
  6
ByLayer
  9
$CECOLOR
 62
   256
  9
$CELTSCALE
 40
1.0
  9
$DISPSILH
 70
     0
  9
$DIMSCALE
 40
1.0
  9
$DIMASZ
 40
6.0
  9
$DIMEXO
 40
2.0
  9
$DIMDLI
 40
3.75
  9
$DIMRND
 40
0.0
  9
$DIMDLE
 40
0.0
  9
$DIMEXE
 40
2.0
  9
$DIMTP
 40
0.0
  9
$DIMTM
 40
0.0
  9
$DIMTXT
 40
7.0
  9
$DIMCEN
 40
2.5
  9
$DIMTSZ
 40
0.0
  9
$DIMTOL
 70
     0
  9
$DIMLIM
 70
     0
  9
$DIMTIH
 70
     1
  9
$DIMTOH
 70
     1
  9
$DIMSE1
 70
     0
  9
$DIMSE2
 70
     0
  9
$DIMTAD
 70
     1
  9
$DIMZIN
 70
     0
  9
$DIMBLK
  1

  9
$DIMASO
 70
     1
  9
$DIMSHO
 70
     1
  9
$DIMPOST
  1

  9
$DIMAPOST
  1

  9
$DIMALT
 70
     0
  9
$DIMALTD
 70
     3
  9
$DIMALTF
 40
0.0393700787
  9
$DIMLFAC
 40
1.0
  9
$DIMTOFL
 70
     1
  9
$DIMTVP
 40
0.0
  9
$DIMTIX
 70
     0
  9
$DIMSOXD
 70
     0
  9
$DIMSAH
 70
     0
  9
$DIMBLK1
  1

  9
$DIMBLK2
  1

  9
$DIMSTYLE
  2
ISO-25
  9
$DIMCLRD
 70
     0
  9
$DIMCLRE
 70
     0
  9
$DIMCLRT
 70
     0
  9
$DIMTFAC
 40
1.0
  9
$DIMGAP
 40
3.048
  9
$DIMJUST
 70
     0
  9
$DIMSD1
 70
     0
  9
$DIMSD2
 70
     0
  9
$DIMTOLJ
 70
     0
  9
$DIMTZIN
 70
     0
  9
$DIMALTZ
 70
     0
  9
$DIMALTTZ
 70
     0
  9
$DIMUPT
 70
     0
  9
$DIMDEC
 70
     1
  9
$DIMTDEC
 70
     1
  9
$DIMALTU
 70
     2
  9
$DIMALTTD
 70
     3
  9
$DIMTXSTY
  7
Standard
  9
$DIMAUNIT
 70
     0
  9
$DIMADEC
 70
     2
  9
$DIMALTRND
 40
0.0
  9
$DIMAZIN
 70
     0
  9
$DIMDSEP
 70
    44
  9
$DIMATFIT
 70
     3
  9
$DIMFRAC
 70
     0
  9
$DIMLDRBLK
  1

  9
$DIMLUNIT
 70
     2
  9
$DIMLWD
 70
    -2
  9
$DIMLWE
 70
    -2
  9
$DIMTMOVE
 70
     0
  9
$LUNITS
 70
     2
  9
$LUPREC
 70
     1
  9
$SKETCHINC
 40
1.0
  9
$FILLETRAD
 40
10.0
  9
$AUNITS
 70
     0
  9
$AUPREC
 70
     2
  9
$MENU
  1
.
  9
$ELEVATION
 40
0.0
  9
$PELEVATION
 40
0.0
  9
$THICKNESS
 40
0.0
  9
$LIMCHECK
 70
     0
  9
$CHAMFERA
 40
10.0
  9
$CHAMFERB
 40
10.0
  9
$CHAMFERC
 40
20.0
  9
$CHAMFERD
 40
0.0
  9
$SKPOLY
 70
     0
  9
$TDCREATE
 40
2460440.595489097
  9
$TDUCREATE
 40
2460440.220489097
  9
$TDUPDATE
 40
2460440.595489109
  9
$TDUUPDATE
 40
2460440.220489109
  9
$TDINDWG
 40
0.0000000116
  9
$TDUSRTIMER
 40
0.0000000116
  9
$USRTIMER
 70
     1
  9
$ANGBASE
 50
0.0
  9
$ANGDIR
 70
     0
  9
$PDMODE
 70
     0
  9
$PDSIZE
 40
-1.0
  9
$PLINEWID
 40
0.0
  9
$SPLFRAME
 70
     0
  9
$SPLINETYPE
 70
     6
  9
$SPLINESEGS
 70
     8
  9
$HANDSEED
  5
252
  9
$SURFTAB1
 70
     6
  9
$SURFTAB2
 70
     6
  9
$SURFTYPE
 70
     6
  9
$SURFU
 70
     6
  9
$SURFV
 70
     6
  9
$UCSBASE
  2

  9
$UCSNAME
  2

  9
$UCSORG
 10
0.0
 20
0.0
 30
0.0
  9
$UCSXDIR
 10
1.0
 20
0.0
 30
0.0
  9
$UCSYDIR
 10
0.0
 20
1.0
 30
0.0
  9
$UCSORTHOREF
  2

  9
$UCSORTHOVIEW
 70
     0
  9
$UCSORGTOP
 10
0.0
 20
0.0
 30
0.0
  9
$UCSORGBOTTOM
 10
0.0
 20
0.0
 30
0.0
  9
$UCSORGLEFT
 10
0.0
 20
0.0
 30
0.0
  9
$UCSORGRIGHT
 10
0.0
 20
0.0
 30
0.0
  9
$UCSORGFRONT
 10
0.0
 20
0.0
 30
0.0
  9
$UCSORGBACK
 10
0.0
 20
0.0
 30
0.0
  9
$PUCSBASE
  2

  9
$PUCSNAME
  2

  9
$PUCSORG
 10
0.0
 20
0.0
 30
0.0
  9
$PUCSXDIR
 10
1.0
 20
0.0
 30
0.0
  9
$PUCSYDIR
 10
0.0
 20
1.0
 30
0.0
  9
$PUCSORTHOREF
  2

  9
$PUCSORTHOVIEW
 70
     0
  9
$PUCSORGTOP
 10
0.0
 20
0.0
 30
0.0
  9
$PUCSORGBOTTOM
 10
0.0
 20
0.0
 30
0.0
  9
$PUCSORGLEFT
 10
0.0
 20
0.0
 30
0.0
  9
$PUCSORGRIGHT
 10
0.0
 20
0.0
 30
0.0
  9
$PUCSORGFRONT
 10
0.0
 20
0.0
 30
0.0
  9
$PUCSORGBACK
 10
0.0
 20
0.0
 30
0.0
  9
$USERI1
 70
     0
  9
$USERI2
 70
     0
  9
$USERI3
 70
     0
  9
$USERI4
 70
     0
  9
$USERI5
 70
     0
  9
$USERR1
 40
0.0
  9
$USERR2
 40
0.0
  9
$USERR3
 40
0.0
  9
$USERR4
 40
0.0
  9
$USERR5
 40
0.0
  9
$WORLDVIEW
 70
     1
  9
$SHADEDGE
 70
     3
  9
$SHADEDIF
 70
    70
  9
$TILEMODE
 70
     1
  9
$MAXACTVP
 70
    64
  9
$PINSBASE
 10
0.0
 20
0.0
 30
0.0
  9
$PLIMCHECK
 70
     0
  9
$PEXTMIN
 10
1.0000000000E+20
 20
1.0000000000E+20
 30
1.0000000000E+20
  9
$PEXTMAX
 10
-1.0000000000E+20
 20
-1.0000000000E+20
 30
-1.0000000000E+20
  9
$PLIMMIN
 10
0.0
 20
0.0
  9
$PLIMMAX
 10
420.0
 20
297.0
  9
$UNITMODE
 70
     0
  9
$VISRETAIN
 70
     1
  9
$PLINEGEN
 70
     0
  9
$PSLTSCALE
 70
     1
  9
$TREEDEPTH
 70
  3020
  9
$CMLSTYLE
  2
Standard
  9
$CMLJUST
 70
     0
  9
$CMLSCALE
 40
20.0
  9
$PROXYGRAPHICS
 70
     1
  9
$MEASUREMENT
 70
     1
  9
$CELWEIGHT
370
    -1
  9
$ENDCAPS
280
     0
  9
$JOINSTYLE
280
     0
  9
$LWDISPLAY
290
     1
  9
$INSUNITS
 70
     4
  9
$HYPERLINKBASE
  1

  9
$STYLESHEET
  1

  9
$XEDIT
290
     1
  9
$CEPSNTYPE
380
     0
  9
$PSTYLEMODE
290
     1
  9
$FINGERPRINTGUID
  2
{841A59B2-5EC4-40F5-A523-47EF48D9945B}
  9
$VERSIONGUID
  2
{FAEB1C32-E019-11D5-929B-00C0DF256EC4}
  9
$EXTNAMES
290
     1
  9
$PSVPSCALE
 40
0.0
  9
$OLESTARTUP
290
     0
  0
ENDSEC
  0
SECTION
  2
CLASSES
  0
CLASS
  1
ACDBDICTIONARYWDFLT
  2
AcDbDictionaryWithDefault
  3
ObjectDBX Classes
 90
        0
280
     0
281
     0
  0
CLASS
  1
VISUALSTYLE
  2
AcDbVisualStyle
  3
ObjectDBX Classes
 90
     4095
280
     0
281
     0
  0
CLASS
  1
MATERIAL
  2
AcDbMaterial
  3
ObjectDBX Classes
 90
     1153
280
     0
281
     0
  0
CLASS
  1
ACDBPLACEHOLDER
  2
AcDbPlaceHolder
  3
ObjectDBX Classes
 90
        0
280
     0
281
     0
  0
CLASS
  1
LAYOUT
  2
AcDbLayout
  3
ObjectDBX Classes
 90
        0
280
     0
281
     0
  0
ENDSEC
  0
SECTION
  2
TABLES
  0
TABLE
  2
VPORT
  5
8
330
0
100
AcDbSymbolTable
 70
     1
  0
VPORT
  5
29
330
8
100
AcDbSymbolTableRecord
100
AcDbViewportTableRecord
  2
*Active
 70
     0
 10
0.0
 20
0.0
 11
1.0
 21
1.0
 12
420.0
 22
297.0
 13
0.0
 23
0.0
 14
10.0
 24
10.0
 15
10.0
 25
10.0
 16
0.0
 26
0.0
 36
1.0
 17
0.0
 27
0.0
 37
0.0
 40
594.0
 41
1.4141414141
 42
50.0
 43
0.0
 44
0.0
 50
0.0
 51
0.0
 71
     0
 72
  2000
 73
     1
 74
     3
 75
     0
 76
     0
 77
     0
 78
     0
281
     0
 65
     1
110
0.0
120
0.0
130
0.0
111
1.0
121
0.0
131
0.0
112
0.0
122
1.0
132
0.0
 79
     0
146
0.0
  0
ENDTAB
  0
TABLE
  2
LTYPE
  5
5
330
0
100
AcDbSymbolTable
 70
     6
  0
LTYPE
  5
14
330
5
100
AcDbSymbolTableRecord
100
AcDbLinetypeTableRecord
  2
ByBlock
 70
     0
  3

 72
    65
 73
     0
 40
0.0
  0
LTYPE
  5
15
330
5
100
AcDbSymbolTableRecord
100
AcDbLinetypeTableRecord
  2
ByLayer
 70
     0
  3

 72
    65
 73
     0
 40
0.0
  0
LTYPE
  5
16
330
5
100
AcDbSymbolTableRecord
100
AcDbLinetypeTableRecord
  2
Continuous
 70
     0
  3
Solid line
 72
    65
 73
     0
 40
0.0
  0
LTYPE
  5
3F
330
5
100
AcDbSymbolTableRecord
100
AcDbLinetypeTableRecord
  2
HIDDEN
 70
     0
  3
Hidden __ __ __ __ __ __ __ __ __ __ __ __ __ __
 72
    65
 73
     2
 40
1.905
 49
1.27
 74
     0
 49
-0.635
 74
     0
  0
LTYPE
  5
40
330
5
100
AcDbSymbolTableRecord
100
AcDbLinetypeTableRecord
  2
PHANTOM
 70
     0
  3
Phantom ______  __  __  ______  __  __  ______
 72
    65
 73
     6
 40
12.7
 49
6.35
 74
     0
 49
-1.27
 74
     0
 49
1.27
 74
     0
 49
-1.27
 74
     0
 49
1.27
 74
     0
 49
-1.27
 74
     0
  0
LTYPE
  5
41
330
5
100
AcDbSymbolTableRecord
100
AcDbLinetypeTableRecord
  2
CENTER
 70
     0
  3
Center ____ _ ____ _ ____ _ ____ _ ____ _ ____
 72
    65
 73
     4
 40
10.16
 49
6.35
 74
     0
 49
-1.27
 74
     0
 49
1.27
 74
     0
 49
-1.27
 74
     0
  0
LTYPE
  5
42
330
5
100
AcDbSymbolTableRecord
100
AcDbLinetypeTableRecord
  2
CENTERX2
 70
     0
  3
Center (2x) ________  __  ________  __  _____
 72
    65
 73
     4
 40
20.32
 49
12.7
 74
     0
 49
-2.54
 74
     0
 49
2.54
 74
     0
 49
-2.54
 74
     0
  0
LTYPE
  5
43
330
5
100
AcDbSymbolTableRecord
100
AcDbLinetypeTableRecord
  2
DOT2
 70
     0
  3
Dot (.5x) ........................................
 72
    65
 73
     2
 40
0.635
 49
0.0
 74
     0
 49
-0.635
 74
     0
  0
ENDTAB
  0
TABLE
  2
LAYER
  5
2
330
0
100
AcDbSymbolTable
 70
     1
  0
LAYER
  5
10
330
2
100
AcDbSymbolTableRecord
100
AcDbLayerTableRecord
  2
0
 70
     0
 62
     7
  6
Continuous
370
    -3
390
F
  0
ENDTAB
  0
TABLE
  2
STYLE
  5
3
330
0
100
AcDbSymbolTable
 70
     2
  0
STYLE
  5
11
330
3
100
AcDbSymbolTableRecord
100
AcDbTextStyleTableRecord
  2
Standard
 70
     0
 40
0.0
 41
1.0
 50
0.0
 71
     0
 42
2.5
  3
txt
  4
bigfont
  0
STYLE
  5
44
330
3
100
AcDbSymbolTableRecord
100
AcDbTextStyleTableRecord
  2
SLDTEXTSTYLE0
 70
     0
 40
0.0
 41
0.7
 50
0.0
 71
     0
 42
0.2
  3
TXT
  4
bigfont
  0
ENDTAB
  0
TABLE
  2
VIEW
  5
6
330
0
100
AcDbSymbolTable
 70
     0
  0
ENDTAB
  0
TABLE
  2
UCS
  5
7
330
0
100
AcDbSymbolTable
 70
     0
  0
ENDTAB
  0
TABLE
  2
APPID
  5
9
330
0
100
AcDbSymbolTable
 70
     1
  0
APPID
  5
12
330
9
100
AcDbSymbolTableRecord
100
AcDbRegAppTableRecord
  2
ACAD
 70
     0
  0
ENDTAB
  0
TABLE
  2
DIMSTYLE
  5
A
330
0
100
AcDbSymbolTable
 70
     1
100
AcDbDimStyleTable
  0
DIMSTYLE
105
27
330
A
100
AcDbSymbolTableRecord
100
AcDbDimStyleTableRecord
  2
ISO-25
 70
     0
 41
2.5
 42
0.625
 43
3.75
 44
1.25
 73
     0
 74
     0
 77
     1
 78
     8
140
2.5
141
2.5
143
0.0393700787
147
0.625
171
     3
172
     1
178
     0
271
     2
272
     2
274
     3
278
    44
283
     0
284
     8
340
11
  0
ENDTAB
  0
TABLE
  2
BLOCK_RECORD
  5
1
330
0
100
AcDbSymbolTable
 70
     1
  0
BLOCK_RECORD
  5
1F
330
1
100
AcDbSymbolTableRecord
100
AcDbBlockTableRecord
  2
*Model_Space
340
22
  0
BLOCK_RECORD
  5
1B
330
1
100
AcDbSymbolTableRecord
100
AcDbBlockTableRecord
  2
*Paper_Space
340
1E
  0
BLOCK_RECORD
  5
23
330
1
100
AcDbSymbolTableRecord
100
AcDbBlockTableRecord
  2
*Paper_Space0
340
26
  0
ENDTAB
  0
ENDSEC
  0
SECTION
  2
BLOCKS
  0
BLOCK
  5
20
330
1F
100
AcDbEntity
  8
0
100
AcDbBlockBegin
  2
*Model_Space
 70
     0
 10
0.0
 20
0.0
 30
0.0
  3
*Model_Space
  1

  0
ENDBLK
  5
21
330
1F
100
AcDbEntity
  8
0
100
AcDbBlockEnd
  0
BLOCK
  5
1C
330
1B
100
AcDbEntity
 67
     1
  8
0
100
AcDbBlockBegin
  2
*Paper_Space
 70
     0
 10
0.0
 20
0.0
 30
0.0
  3
*Paper_Space
  1

  0
ENDBLK
  5
1D
330
1B
100
AcDbEntity
 67
     1
  8
0
100
AcDbBlockEnd
  0
BLOCK
  5
24
330
23
100
AcDbEntity
  8
0
100
AcDbBlockBegin
  2
*Paper_Space0
 70
     0
 10
0.0
 20
0.0
 30
0.0
  3
*Paper_Space0
  1

  0
ENDBLK
  5
25
330
23
100
AcDbEntity
  8
0
100
AcDbBlockEnd
  0
ENDSEC
  0
SECTION
  2
ENTITIES
  0
MTEXT
  5
45
330
1F
100
AcDbEntity
  8
0
  6
Continuous
 62
     7
370
     0
100
AcDbMText
 10
158.9619249823
 20
515.5839836543
 30
0.0
 40
7.0
 41
0.0
 71
     1
 72
     1
  1
CHB-503N
  7
SLDTEXTSTYLE0
 73
     1
 44
1.0
  0
LINE
  5
46
330
1F
100
AcDbEntity
  8
0
  6
Continuous
 62
     7
370
    15
100
AcDbLine
 10
382.2525869992
 20
229.9077137035
 30
0.0
 11
382.352588692
 21
229.9077137035
 31
0.0
  0
LINE
  5
47
330
1F
100
AcDbEntity
  8
0
  6
Continuous
 62
     7
370
    15
100
AcDbLine
 10
382.352588692
 20
235.9077139885
 30
0.0
 11
382.2525869992
 21
235.9077139885
 31
0.0
  0
LINE
  5
48
330
1F
100
AcDbEntity
  8
0
  6
Continuous
 62
     7
370
    15
100
AcDbLine
 10
382.2525869992
 20
239.9077141785
 30
0.0
 11
382.352588692
 21
239.9077141785
 31
0.0
  0
LINE
  5
49
330
1F
100
AcDbEntity
  8
0
  6
Continuous
 62
     7
370
    15
100
AcDbLine
 10
382.352588692
 20
245.9077144635
 30
0.0
 11
382.2525869992
 21
245.9077144635
 31
0.0
  0
LINE
  5
4A
330
1F
100
AcDbEntity
  8
0
  6
Continuous
 62
     7
370
    15
100
AcDbLine
 10
383.5525792029
 20
249.4077141059
 30
0.0
 11
382.352588692
 21
249.4077141059
 31
0.0
  0
LINE
  5
4B
330
1F
100
AcDbEntity
  8
0
  6
Continuous
 62
     7
370
    15
100
AcDbLine
 10
382.352588692
 20
226.4077140612
 30
0.0
 11
383.5525792029
 21
226.4077140612
 31
0.0
  0
LINE
  5
4C
330
1F
100
AcDbEntity
  8
0
  6
Continuous
 62
     7
370
    15
100
AcDbLine
 10
795.0525861171
 20
93.9077202824
 30
0.0
 11
795.0525861171
 21
128.9077167061
 31
0.0
  0
LINE
  5
4D
330
1F
100
AcDbEntity
  8
0
  6
Continuous
 62
     7
370
    15
100
AcDbLine
 10
795.0525861171
 20
346.9077114609
 30
0.0
 11
795.0525861171
 21
381.9077078846
 31
0.0
  0
LINE
  5
4E
330
1F
100
AcDbEntity
  8
0
  6
Continuous
 62
     7
370
    15
100
AcDbLine
 10
374.4477759984
 20
241.8077139777
 30
0.0
 11
374.4477759984
 21
233.2077141513
 31
0.0
  0
LINE
  5
4F
330
1F
100
AcDbEntity
  8
0
  6
Continuous
 62
     7
370
    15
100
AcDbLine
 10
375.0525843289
 20
230.7077142072
 30
0.0
 11
375.0525843289
 21
229.9079679546
 31
0.0
  0
LINE
  5
50
330
1F
100
AcDbEntity
  8
0
  6
Continuous
 62
     7
370
    15
100
AcDbLine
 10
375.0525843289
 20
245.9074602124
 30
0.0
 11
375.0525843289
 21
245.1077139598
 31
0.0
  0
ARC
  5
51
330
1F
100
AcDbEntity
  8
0
  6
Continuous
 62
     7
370
    15
100
AcDbCircle
 10
378.6525821832
 20
243.1005712264
 30
0.0
 40
3.807142857143191
100
AcDbArc
 50
77.9663271603
 51
90.0
  0
ARC
  5
52
330
1F
100
AcDbEntity
  8
0
  6
Continuous
 62
     7
370
    15
100
AcDbCircle
 10
378.6525821832
 20
243.1005712264
 30
0.0
 40
3.807142857143245
100
AcDbArc
 50
90.0
 51
125.3002484399
  0
LINE
  5
53
330
1F
100
AcDbEntity
  8
0
  6
Continuous
 62
     7
370
    15
100
AcDbLine
 10
376.4525782254
 20
246.2077139539
 30
0.0
 11
376.4525782254
 21
245.9077144635
 31
0.0
  0
LINE
  5
54
330
1F
100
AcDbEntity
  8
0
  6
Continuous
 62
     7
370
    15
100
AcDbLine
 10
376.5525799182
 20
229.507714383
 30
0.0
 11
376.5525799182
 21
229.1077141312
 31
0.0
  0
ARC
  5
55
330
1F
100
AcDbEntity
  8
0
  6
Continuous
 62
     7
370
    15
100
AcDbCircle
 10
376.7525821832
 20
229.9077140835
 30
0.0
 40
0.4000000000007731
100
AcDbArc
 50
270.0
 51
0.0
  0
LINE
  5
56
330
1F
100
AcDbEntity
  8
0
  6
Continuous
 62
     7
370
    15
100
AcDbLine
 10
377.1525751737
 20
245.1077139598
 30
0.0
 11
377.1525751737
 21
244.6577142586
 31
0.0
  0
LINE
  5
57
330
1F
100
AcDbEntity
  8
0
  6
Continuous
 62
     7
370
    15
100
AcDbLine
 10
377.1525751737
 20
231.1577139084
 30
0.0
 11
377.1525751737
 21
230.7077142072
 31
0.0
  0
SPLINE
  5
58
330
1F
100
AcDbEntity
  8
0
  6
Continuous
 62
     7
370
    15
100
AcDbSpline
210
0.0
220
0.0
230
1.0
 70
     8
 71
     3
 72
    11
 73
     7
 74
     0
 42
0.00000001
 43
0.00000001
 40
0.0
 40
0.0
 40
0.0
 40
0.0
 40
0.2262235143086493
 40
0.467948546649789
 40
0.7254888838111353
 40
0.9999999999999999
 40
0.9999999999999999
 40
0.9999999999999999
 40
0.9999999999999999
 10
379.8730950739945
 20
246.1381488141593
 30
0.0
 10
379.875914410025
 20
246.1152495920105
 30
0.0
 10
379.8817462715008
 20
246.0678820238923
 30
0.0
 10
379.8985368185453
 20
245.7430996745543
 30
0.0
 10
379.9121294566204
 20
245.2426002986603
 30
0.0
 10
379.9126646479147
 20
244.8187790661924
 30
0.0
 10
379.9129407790268
 20
244.6001091633913
 30
0.0
  0
SPLINE
  5
59
330
1F
100
AcDbEntity
  8
0
  6
Continuous
 62
     7
370
    15
100
AcDbSpline
210
0.0
220
0.0
230
1.0
 70
     8
 71
     3
 72
    12
 73
     8
 74
     0
 42
0.00000001
 43
0.00000001
 40
0.0
 40
0.0
 40
0.0
 40
0.0
 40
0.2489433810545054
 40
0.4822897574529931
 40
0.6998115288059334
 40
0.9035368986525243
 40
1.0
 40
1.0
 40
1.0
 40
1.0
 10
379.9129407790268
 20
231.0414783318517
 30
0.0
 10
379.9115149031047
 20
230.9041437315567
 30
0.0
 10
379.9087524864069
 20
230.6380789308556
 30
0.0
 10
379.8978515233478
 20
230.3022769767268
 30
0.0
 10
379.8953412170804
 20
230.0691009178916
 30
0.0
 10
379.9001303747567
 20
229.9489948299902
 30
0.0
 10
379.92656087721
 20
229.9476484111699
 30
0.0
 10
379.9350541022385
 20
229.947215750533
 30
0.0
  0
LINE
  5
5A
330
1F
100
AcDbEntity
  8
0
  6
Continuous
 62
     7
370
    15
100
AcDbLine
 10
379.9120914128
 20
244.6501090785
 30
0.0
 11
379.9120914128
 21
230.9914784168
 31
0.0
  0
LINE
  5
5B
330
1F
100
AcDbEntity
  8
0
  6
Continuous
 62
     7
370
    15
100
AcDbLine
 10
378.3884774831
 20
248.5879975033
 30
0.0
 11
379.8758368877
 21
246.1078500968
 31
0.0
  0
LINE
  5
5C
330
1F
100
AcDbEntity
  8
0
  6
Continuous
 62
     7
370
    15
100
AcDbLine
 10
382.352588692
 20
247.810959689
 30
0.0
 11
380.9612970737
 21
250.130923338
 31
0.0
  0
LINE
  5
5D
330
1F
100
AcDbEntity
  8
0
  6
Continuous
 62
     7
370
    15
100
AcDbLine
 10
379.9403291133
 20
229.8151299951
 30
0.0
 11
378.3712517408
 21
227.1987114695
 31
0.0
  0
LINE
  5
5E
330
1F
100
AcDbEntity
  8
0
  6
Continuous
 62
     7
370
    15
100
AcDbLine
 10
380.9440713313
 20
225.6557856348
 30
0.0
 11
382.352588692
 21
228.004468478
 31
0.0
  0
LINE
  5
5F
330
1F
100
AcDbEntity
  8
0
  6
Continuous
 62
     7
370
    15
100
AcDbLine
 10
380.9811901239
 20
250.0954148022
 30
0.0
 11
380.8912318137
 21
250.2092019317
 31
0.0
  0
SPLINE
  5
60
330
1F
100
AcDbEntity
  8
0
  6
Continuous
 62
     7
370
    15
100
AcDbSpline
210
0.0
220
0.0
230
1.0
 70
     8
 71
     3
 72
    20
 73
    16
 74
     0
 42
0.00000001
 43
0.00000001
 40
0.0
 40
0.0
 40
0.0
 40
0.0
 40
0.0337804484770458
 40
0.1101067222574623
 40
0.1739284888191269
 40
0.2252741119326925
 40
0.2665365491125276
 40
0.3037745687321112
 40
0.3388585648866765
 40
0.3726399021877442
 40
0.413917672451434
 40
0.6259828182369774
 40
0.8390272848061241
 40
0.9659462447580215
 40
1.0
 40
1.0
 40
1.0
 40
1.0
 10
380.7789217618073
 20
250.3512714651403
 30
0.0
 10
380.7382610014831
 20
250.4074568867565
 30
0.0
 10
380.605728035059
 20
250.5905921881429
 30
0.0
 10
380.2958663610236
 20
250.7677679306887
 30
0.0
 10
379.9086027025417
 20
250.8907289188354
 30
0.0
 10
379.5387556820082
 20
250.9055167651122
 30
0.0
 10
379.2044376726066
 20
250.854923774341
 30
0.0
 10
378.929953451667
 20
250.7538810013786
 30
0.0
 10
378.7024491848284
 20
250.6191586386799
 30
0.0
 10
378.4964161642444
 20
250.4429863425461
 30
0.0
 10
378.1518935652235
 20
250.000483879736
 30
0.0
 10
377.9708047179735
 20
249.3138231885894
 30
0.0
 10
377.8210041666713
 20
248.1329844470548
 30
0.0
 10
377.7658844336811
 20
247.2283420392079
 30
0.0
 10
377.7593229319419
 20
246.8137540770672
 30
0.0
 10
377.7579348471726
 20
246.7260480520305
 30
0.0
  0
SPLINE
  5
61
330
1F
100
AcDbEntity
  8
0
  6
Continuous
 62
     7
370
    15
100
AcDbSpline
210
0.0
220
0.0
230
1.0
 70
     8
 71
     3
 72
    19
 73
    15
 74
     0
 42
0.00000001
 43
0.00000001
 40
0.0
 40
0.0
 40
0.0
 40
0.0
 40
0.0102737183622543
 40
0.1295969785223779
 40
0.3268126212951054
 40
0.5525087974074913
 40
0.5858541063471573
 40
0.6186016689037054
 40
0.6529060907157258
 40
0.6960071603605987
 40
0.7523130705281952
 40
0.8223154090455866
 40
0.9054607621640426
 40
1.0
 40
1.0
 40
1.0
 40
1.0
 10
377.7550887253846
 20
229.1077141311941
 30
0.0
 10
377.755411929393
 20
229.0805151625156
 30
0.0
 10
377.759488959876
 20
228.7374160006187
 30
0.0
 10
377.7992513809917
 20
227.9174251860313
 30
0.0
 10
377.9342532153602
 20
226.6949967453785
 30
0.0
 10
378.0246609306631
 20
226.0516299190167
 30
0.0
 10
378.3755504318968
 20
225.5115354788681
 30
0.0
 10
378.5447721744062
 20
225.3236929657753
 30
0.0
 10
378.7814792422836
 20
225.1472067364365
 30
0.0
 10
379.0951086383496
 20
224.9937385718493
 30
0.0
 10
379.4985946332264
 20
224.8919478140368
 30
0.0
 10
379.9844563216541
 20
224.9151104807893
 30
0.0
 10
380.5142106415382
 20
225.1254389494813
 30
0.0
 10
380.7794294955337
 20
225.4472552501317
 30
0.0
 10
380.9205423977936
 20
225.6184815091071
 30
0.0
  0
LINE
  5
62
330
1F
100
AcDbEntity
  8
0
  6
Continuous
 62
     7
370
    15
100
AcDbLine
 10
795.0525861171
 20
57.907706931
 30
0.0
 11
795.0525861171
 21
92.9077182558
 31
0.0
  0
LINE
  5
63
330
1F
100
AcDbEntity
  8
0
  6
Continuous
 62
     7
370
    15
100
AcDbLine
 10
795.0525861171
 20
382.9077099112
 30
0.0
 11
795.0525861171
 21
417.9077212361
 31
0.0
  0
LINE
  5
64
330
1F
100
AcDbEntity
  8
0
  6
Continuous
 62
     7
370
    15
100
AcDbLine
 10
792.0525800374
 20
92.9077182558
 30
0.0
 11
792.0525800374
 21
93.9077202824
 31
0.0
  0
LINE
  5
65
330
1F
100
AcDbEntity
  8
0
  6
Continuous
 62
     7
370
    15
100
AcDbLine
 10
792.0525800374
 20
128.9077167061
 30
0.0
 11
792.0525800374
 21
129.9077112821
 31
0.0
  0
LINE
  5
66
330
1F
100
AcDbEntity
  8
0
  6
Continuous
 62
     7
370
    15
100
AcDbLine
 10
787.0525848058
 20
129.9077112821
 30
0.0
 11
787.0525848058
 21
128.9077167061
 31
0.0
  0
LINE
  5
67
330
1F
100
AcDbEntity
  8
0
  6
Continuous
 62
     7
370
    15
100
AcDbLine
 10
787.0525848058
 20
93.9077202824
 30
0.0
 11
787.0525848058
 21
92.9077182558
 31
0.0
  0
LINE
  5
68
330
1F
100
AcDbEntity
  8
0
  6
Continuous
 62
     7
370
    15
100
AcDbLine
 10
787.0525848058
 20
382.9077099112
 30
0.0
 11
787.0525848058
 21
381.9077078846
 31
0.0
  0
LINE
  5
69
330
1F
100
AcDbEntity
  8
0
  6
Continuous
 62
     7
370
    15
100
AcDbLine
 10
787.0525848058
 20
346.9077114609
 30
0.0
 11
787.0525848058
 21
345.9077168849
 31
0.0
  0
LINE
  5
6A
330
1F
100
AcDbEntity
  8
0
  6
Continuous
 62
     7
370
    15
100
AcDbLine
 10
792.0525800374
 20
345.9077168849
 30
0.0
 11
792.0525800374
 21
346.9077114609
 31
0.0
  0
LINE
  5
6B
330
1F
100
AcDbEntity
  8
0
  6
Continuous
 62
     7
370
    15
100
AcDbLine
 10
792.0525800374
 20
381.9077078846
 30
0.0
 11
792.0525800374
 21
382.9077099112
 31
0.0
  0
LINE
  5
6C
330
1F
100
AcDbEntity
  8
0
  6
Continuous
 62
     7
370
    15
100
AcDbLine
 10
375.2525877145
 20
244.6577142586
 30
0.0
 11
375.2525877145
 21
244.3649031815
 31
0.0
  0
LINE
  5
6D
330
1F
100
AcDbEntity
  8
0
  6
Continuous
 62
     7
370
    15
100
AcDbLine
 10
375.2525877145
 20
231.4505249855
 30
0.0
 11
375.2525877145
 21
231.1577139084
 31
0.0
  0
LINE
  5
6E
330
1F
100
AcDbEntity
  8
0
  6
Continuous
 62
     7
370
    15
100
AcDbLine
 10
768.5525845674
 20
52.9077116993
 30
0.0
 11
768.5525845674
 21
37.9077111033
 31
0.0
  0
LINE
  5
6F
330
1F
100
AcDbEntity
  8
0
  6
Continuous
 62
     7
370
    15
100
AcDbLine
 10
768.5525845674
 20
52.9077116993
 30
0.0
 11
783.5525851634
 21
52.9077116993
 31
0.0
  0
ARC
  5
70
330
1F
100
AcDbEntity
  8
0
  6
Continuous
 62
     7
370
    15
100
AcDbCircle
 10
768.5525821832
 20
52.9077140835
 30
0.0
 40
15.00000000000011
100
AcDbArc
 50
270.0
 51
0.0
  0
LINE
  5
71
330
1F
100
AcDbEntity
  8
0
  6
Continuous
 62
     7
370
    15
100
AcDbLine
 10
398.552579799
 20
37.9077111033
 30
0.0
 11
398.552579799
 21
52.9077116993
 31
0.0
  0
LINE
  5
72
330
1F
100
AcDbEntity
  8
0
  6
Continuous
 62
     7
370
    15
100
AcDbLine
 10
398.552579799
 20
52.9077116993
 30
0.0
 11
768.5525845674
 21
52.9077116993
 31
0.0
  0
LINE
  5
73
330
1F
100
AcDbEntity
  8
0
  6
Continuous
 62
     7
370
    15
100
AcDbLine
 10
398.552579799
 20
37.9077111033
 30
0.0
 11
768.5525845674
 21
37.9077111033
 31
0.0
  0
ARC
  5
74
330
1F
100
AcDbEntity
  8
0
  6
Continuous
 62
     7
370
    15
100
AcDbCircle
 10
398.5525821832
 20
52.9077140835
 30
0.0
 40
15.00000000000001
100
AcDbArc
 50
180.0
 51
270.0
  0
LINE
  5
75
330
1F
100
AcDbEntity
  8
0
  6
Continuous
 62
     7
370
    15
100
AcDbLine
 10
383.5525792029
 20
52.9077116993
 30
0.0
 11
398.552579799
 21
52.9077116993
 31
0.0
  0
LINE
  5
76
330
1F
100
AcDbEntity
  8
0
  6
Continuous
 62
     7
370
    15
100
AcDbLine
 10
403.5525750306
 20
57.907706931
 30
0.0
 11
403.5525750306
 21
417.9077212361
 31
0.0
  0
LINE
  5
77
330
1F
100
AcDbEntity
  8
0
  6
Continuous
 62
     7
370
    15
100
AcDbLine
 10
763.5525893357
 20
57.907706931
 30
0.0
 11
403.5525750306
 21
57.907706931
 31
0.0
  0
LINE
  5
78
330
1F
100
AcDbEntity
  8
0
  6
Continuous
 62
     7
370
    15
100
AcDbLine
 10
763.5525893357
 20
57.907706931
 30
0.0
 11
763.5525893357
 21
417.9077212361
 31
0.0
  0
LINE
  5
79
330
1F
100
AcDbEntity
  8
0
  6
Continuous
 62
     7
370
    15
100
AcDbLine
 10
403.5525750306
 20
417.9077212361
 30
0.0
 11
763.5525893357
 21
417.9077212361
 31
0.0
  0
LINE
  5
7A
330
1F
100
AcDbEntity
  8
0
  6
Continuous
 62
     7
370
    15
100
AcDbLine
 10
398.552579799
 20
422.9077164677
 30
0.0
 11
398.552579799
 21
52.9077116993
 31
0.0
  0
LINE
  5
7B
330
1F
100
AcDbEntity
  8
0
  6
Continuous
 62
     7
370
    15
100
AcDbLine
 10
398.552579799
 20
422.9077164677
 30
0.0
 11
768.5525845674
 21
422.9077164677
 31
0.0
  0
LINE
  5
7C
330
1F
100
AcDbEntity
  8
0
  6
Continuous
 62
     7
370
    15
100
AcDbLine
 10
768.5525845674
 20
52.9077116993
 30
0.0
 11
768.5525845674
 21
422.9077164677
 31
0.0
  0
LINE
  5
7D
330
1F
100
AcDbEntity
  8
0
  6
Continuous
 62
     7
370
    15
100
AcDbLine
 10
783.5525851634
 20
52.9077116993
 30
0.0
 11
783.5525851634
 21
422.9077164677
 31
0.0
  0
LINE
  5
7E
330
1F
100
AcDbEntity
  8
0
  6
Continuous
 62
     7
370
    15
100
AcDbLine
 10
783.5525851634
 20
422.9077164677
 30
0.0
 11
768.5525845674
 21
422.9077164677
 31
0.0
  0
LINE
  5
7F
330
1F
100
AcDbEntity
  8
0
  6
Continuous
 62
     7
370
    15
100
AcDbLine
 10
383.5525792029
 20
227.9202219692
 30
0.0
 11
383.5525792029
 21
52.9077116993
 31
0.0
  0
LINE
  5
80
330
1F
100
AcDbEntity
  8
0
  6
Continuous
 62
     7
370
    15
100
AcDbLine
 10
383.5525792029
 20
247.8952061978
 30
0.0
 11
383.5525792029
 21
422.9077164677
 31
0.0
  0
LINE
  5
81
330
1F
100
AcDbEntity
  8
0
  6
Continuous
 62
     7
370
    15
100
AcDbLine
 10
383.5525792029
 20
422.9077164677
 30
0.0
 11
398.552579799
 21
422.9077164677
 31
0.0
  0
LINE
  5
82
330
1F
100
AcDbEntity
  8
0
  6
Continuous
 62
     7
370
    15
100
AcDbLine
 10
398.552579799
 20
422.9077164677
 30
0.0
 11
398.552579799
 21
437.9077170637
 31
0.0
  0
LINE
  5
83
330
1F
100
AcDbEntity
  8
0
  6
Continuous
 62
     7
370
    15
100
AcDbLine
 10
398.552579799
 20
437.9077170637
 30
0.0
 11
768.5525845674
 21
437.9077170637
 31
0.0
  0
LINE
  5
84
330
1F
100
AcDbEntity
  8
0
  6
Continuous
 62
     7
370
    15
100
AcDbLine
 10
768.5525845674
 20
437.9077170637
 30
0.0
 11
768.5525845674
 21
422.9077164677
 31
0.0
  0
ARC
  5
85
330
1F
100
AcDbEntity
  8
0
  6
Continuous
 62
     7
370
    15
100
AcDbCircle
 10
768.5525821832
 20
422.9077140835
 30
0.0
 40
15.00000000000011
100
AcDbArc
 50
0.0
 51
90.0
  0
ARC
  5
86
330
1F
100
AcDbEntity
  8
0
  6
Continuous
 62
     7
370
    15
100
AcDbCircle
 10
398.5525821832
 20
422.9077140835
 30
0.0
 40
15.00000000000006
100
AcDbArc
 50
90.0
 51
180.0
  0
LINE
  5
87
330
1F
100
AcDbEntity
  8
0
  6
Continuous
 62
     7
370
    15
100
AcDbLine
 10
382.352588692
 20
248.9421971736
 30
0.0
 11
383.5525792029
 21
248.9421971736
 31
0.0
  0
LINE
  5
88
330
1F
100
AcDbEntity
  8
0
  6
Continuous
 62
     7
370
    15
100
AcDbLine
 10
382.352588692
 20
226.8732309935
 30
0.0
 11
383.5525792029
 21
226.8732309935
 31
0.0
  0
LINE
  5
89
330
1F
100
AcDbEntity
  8
0
  6
Continuous
 62
     7
370
    15
100
AcDbLine
 10
382.352588692
 20
226.8732309935
 30
0.0
 11
382.352588692
 21
248.9421971736
 31
0.0
  0
LINE
  5
8A
330
1F
100
AcDbEntity
  8
0
  6
Continuous
 62
     7
370
    15
100
AcDbLine
 10
383.5525792029
 20
247.8952061978
 30
0.0
 11
383.5525792029
 21
227.9202219692
 31
0.0
  0
LINE
  5
8B
330
1F
100
AcDbEntity
  8
0
  6
Continuous
 62
     7
370
    15
100
AcDbLine
 10
382.2525869992
 20
229.9077137035
 30
0.0
 11
382.2525869992
 21
235.9077139885
 31
0.0
  0
LINE
  5
8C
330
1F
100
AcDbEntity
  8
0
  6
Continuous
 62
     7
370
    15
100
AcDbLine
 10
382.2525869992
 20
242.9077139718
 30
0.0
 11
382.2525869992
 21
245.9077144635
 31
0.0
  0
LINE
  5
8D
330
1F
100
AcDbEntity
  8
0
  6
Continuous
 62
     7
370
    15
100
AcDbLine
 10
382.2525869992
 20
239.9077141785
 30
0.0
 11
382.2525869992
 21
242.9077139718
 31
0.0
  0
LINE
  5
8E
330
1F
100
AcDbEntity
  8
0
  6
Continuous
 62
     7
370
    15
100
AcDbLine
 10
382.352588692
 20
248.9421971736
 30
0.0
 11
382.352588692
 21
249.4077141059
 31
0.0
  0
LINE
  5
8F
330
1F
100
AcDbEntity
  8
0
  6
Continuous
 62
     7
370
    15
100
AcDbLine
 10
382.352588692
 20
226.4077140612
 30
0.0
 11
382.352588692
 21
226.8732309935
 31
0.0
  0
LINE
  5
90
330
1F
100
AcDbEntity
  8
0
  6
Continuous
 62
     7
370
    15
100
AcDbLine
 10
784.4539415029
 20
128.9077167061
 30
0.0
 11
784.4539415029
 21
93.9077202824
 31
0.0
  0
LINE
  5
91
330
1F
100
AcDbEntity
  8
0
  6
Continuous
 62
     7
370
    15
100
AcDbLine
 10
784.4539415029
 20
128.9077167061
 30
0.0
 11
795.0525861171
 21
128.9077167061
 31
0.0
  0
LINE
  5
92
330
1F
100
AcDbEntity
  8
0
  6
Continuous
 62
     7
370
    15
100
AcDbLine
 10
784.4539415029
 20
93.9077202824
 30
0.0
 11
795.0525861171
 21
93.9077202824
 31
0.0
  0
LINE
  5
93
330
1F
100
AcDbEntity
  8
0
  6
Continuous
 62
     7
370
    15
100
AcDbLine
 10
784.4539415029
 20
381.9077078846
 30
0.0
 11
784.4539415029
 21
346.9077114609
 31
0.0
  0
LINE
  5
94
330
1F
100
AcDbEntity
  8
0
  6
Continuous
 62
     7
370
    15
100
AcDbLine
 10
784.4539415029
 20
381.9077078846
 30
0.0
 11
795.0525861171
 21
381.9077078846
 31
0.0
  0
LINE
  5
95
330
1F
100
AcDbEntity
  8
0
  6
Continuous
 62
     7
370
    15
100
AcDbLine
 10
784.4539415029
 20
346.9077114609
 30
0.0
 11
795.0525861171
 21
346.9077114609
 31
0.0
  0
LINE
  5
96
330
1F
100
AcDbEntity
  8
0
  6
Continuous
 62
     7
370
    15
100
AcDbLine
 10
783.9904259828
 20
128.9077167061
 30
0.0
 11
783.9904259828
 21
93.9077202824
 31
0.0
  0
LINE
  5
97
330
1F
100
AcDbEntity
  8
0
  6
Continuous
 62
     7
370
    15
100
AcDbLine
 10
783.9904259828
 20
128.9077167061
 30
0.0
 11
784.4539415029
 21
128.9077167061
 31
0.0
  0
LINE
  5
98
330
1F
100
AcDbEntity
  8
0
  6
Continuous
 62
     7
370
    15
100
AcDbLine
 10
783.9904259828
 20
93.9077202824
 30
0.0
 11
784.4539415029
 21
93.9077202824
 31
0.0
  0
LINE
  5
99
330
1F
100
AcDbEntity
  8
0
  6
Continuous
 62
     7
370
    15
100
AcDbLine
 10
783.9904259828
 20
381.9077078846
 30
0.0
 11
783.9904259828
 21
346.9077114609
 31
0.0
  0
LINE
  5
9A
330
1F
100
AcDbEntity
  8
0
  6
Continuous
 62
     7
370
    15
100
AcDbLine
 10
783.9904259828
 20
381.9077078846
 30
0.0
 11
784.4539415029
 21
381.9077078846
 31
0.0
  0
LINE
  5
9B
330
1F
100
AcDbEntity
  8
0
  6
Continuous
 62
     7
370
    15
100
AcDbLine
 10
783.9904259828
 20
346.9077114609
 30
0.0
 11
784.4539415029
 21
346.9077114609
 31
0.0
  0
LINE
  5
9C
330
1F
100
AcDbEntity
  8
0
  6
Continuous
 62
     7
370
    15
100
AcDbLine
 10
783.5525851634
 20
128.9077167061
 30
0.0
 11
783.9904259828
 21
128.9077167061
 31
0.0
  0
LINE
  5
9D
330
1F
100
AcDbEntity
  8
0
  6
Continuous
 62
     7
370
    15
100
AcDbLine
 10
783.5525851634
 20
93.9077202824
 30
0.0
 11
783.9904259828
 21
93.9077202824
 31
0.0
  0
LINE
  5
9E
330
1F
100
AcDbEntity
  8
0
  6
Continuous
 62
     7
370
    15
100
AcDbLine
 10
783.5525851634
 20
381.9077078846
 30
0.0
 11
783.9904259828
 21
381.9077078846
 31
0.0
  0
LINE
  5
9F
330
1F
100
AcDbEntity
  8
0
  6
Continuous
 62
     7
370
    15
100
AcDbLine
 10
783.5525851634
 20
346.9077114609
 30
0.0
 11
783.9904259828
 21
346.9077114609
 31
0.0
  0
ARC
  5
A0
330
1F
100
AcDbEntity
  8
0
  6
Continuous
 62
     7
370
    15
100
AcDbCircle
 10
376.37526447
 20
243.3188786452
 30
0.0
 40
1.097816839157943
100
AcDbArc
 50
97.3339510799
 51
185.8117201705
  0
LINE
  5
A1
330
1F
100
AcDbEntity
  8
0
  6
Continuous
 62
     7
370
    15
100
AcDbLine
 10
376.2351255801
 20
244.4077142176
 30
0.0
 11
379.7785621074
 21
244.4077142176
 31
0.0
  0
LINE
  5
A2
330
1F
100
AcDbEntity
  8
0
  6
Continuous
 62
     7
370
    15
100
AcDbLine
 10
379.7785621074
 20
244.4077142176
 30
0.0
 11
379.7785621074
 21
231.4077139494
 31
0.0
  0
LINE
  5
A3
330
1F
100
AcDbEntity
  8
0
  6
Continuous
 62
     7
370
    15
100
AcDbLine
 10
379.7785621074
 20
231.4077139494
 30
0.0
 11
376.2351255801
 21
231.4077139494
 31
0.0
  0
ARC
  5
A4
330
1F
100
AcDbEntity
  8
0
  6
Continuous
 62
     7
370
    15
100
AcDbCircle
 10
376.37526447
 20
232.4965495219
 30
0.0
 40
1.097816839157938
100
AcDbArc
 50
174.1882798295
 51
262.6660489201
  0
LINE
  5
A5
330
1F
100
AcDbEntity
  8
0
  6
Continuous
 62
     7
370
    15
100
AcDbLine
 10
375.2830903915
 20
243.2077139278
 30
0.0
 11
375.2830903915
 21
232.6077142392
 31
0.0
  0
LINE
  5
A6
330
1F
100
AcDbEntity
  8
0
  6
Continuous
 62
     7
370
    15
100
AcDbLine
 10
376.2351255801
 20
231.4077139494
 30
0.0
 11
375.5046110538
 21
231.4077139494
 31
0.0
  0
ARC
  5
A7
330
1F
100
AcDbEntity
  8
0
  6
Continuous
 62
     7
370
    15
100
AcDbCircle
 10
375.6447499437
 20
232.4965495219
 30
0.0
 40
1.097816839157938
100
AcDbArc
 50
174.1882798295
 51
262.6660489201
  0
LINE
  5
A8
330
1F
100
AcDbEntity
  8
0
  6
Continuous
 62
     7
370
    15
100
AcDbLine
 10
374.5525758651
 20
232.6077142392
 30
0.0
 11
375.2830903915
 21
232.6077142392
 31
0.0
  0
LINE
  5
A9
330
1F
100
AcDbEntity
  8
0
  6
Continuous
 62
     7
370
    15
100
AcDbLine
 10
375.2830903915
 20
243.2077139278
 30
0.0
 11
374.5525758651
 21
243.2077139278
 31
0.0
  0
LINE
  5
AA
330
1F
100
AcDbEntity
  8
0
  6
Continuous
 62
     7
370
    15
100
AcDbLine
 10
374.5525758651
 20
243.2077139278
 30
0.0
 11
374.5525758651
 21
232.6077142392
 31
0.0
  0
LINE
  5
AB
330
1F
100
AcDbEntity
  8
0
  6
Continuous
 62
     7
370
    15
100
AcDbLine
 10
375.5046110538
 20
244.4077142176
 30
0.0
 11
376.2351255801
 21
244.4077142176
 31
0.0
  0
ARC
  5
AC
330
1F
100
AcDbEntity
  8
0
  6
Continuous
 62
     7
370
    15
100
AcDbCircle
 10
375.6447499437
 20
243.3188786452
 30
0.0
 40
1.097816839157943
100
AcDbArc
 50
97.3339510799
 51
185.8117201705
  0
LINE
  5
AD
330
1F
100
AcDbEntity
  8
0
  6
Continuous
 62
     7
370
    15
100
AcDbLine
 10
379.8601012614
 20
244.4077142176
 30
0.0
 11
379.7785621074
 21
244.4077142176
 31
0.0
  0
LINE
  5
AE
330
1F
100
AcDbEntity
  8
0
  6
Continuous
 62
     7
370
    15
100
AcDbLine
 10
379.7785621074
 20
231.4077139494
 30
0.0
 11
379.9120914128
 21
231.4077139494
 31
0.0
  0
LINE
  5
AF
330
1F
100
AcDbEntity
  8
0
  6
Continuous
 62
     7
370
    15
100
AcDbLine
 10
374.5525758651
 20
241.8077139777
 30
0.0
 11
374.4477759984
 21
241.8077139777
 31
0.0
  0
LINE
  5
B0
330
1F
100
AcDbEntity
  8
0
  6
Continuous
 62
     7
370
    15
100
AcDbLine
 10
374.5525758651
 20
233.2077141513
 30
0.0
 11
374.4477759984
 21
233.2077141513
 31
0.0
  0
LINE
  5
B1
330
1F
100
AcDbEntity
  8
0
  6
Continuous
 62
     7
370
    15
100
AcDbLine
 10
379.9267392543
 20
229.9077137035
 30
0.0
 11
375.0531803754
 21
229.9077137035
 31
0.0
  0
LINE
  5
B2
330
1F
100
AcDbEntity
  8
0
  6
Continuous
 62
     7
370
    15
100
AcDbLine
 10
379.9184691098
 20
230.7077142072
 30
0.0
 11
375.0525843289
 21
230.7077142072
 31
0.0
  0
LINE
  5
B3
330
1F
100
AcDbEntity
  8
0
  6
Continuous
 62
     7
370
    15
100
AcDbLine
 10
379.8785190967
 20
245.1077139598
 30
0.0
 11
375.0525843289
 21
245.1077139598
 31
0.0
  0
LINE
  5
B4
330
1F
100
AcDbEntity
  8
0
  6
Continuous
 62
     7
370
    15
100
AcDbLine
 10
379.8968624261
 20
245.9077144635
 30
0.0
 11
375.0531803754
 21
245.9077144635
 31
0.0
  0
LINE
  5
B5
330
1F
100
AcDbEntity
  8
0
  6
Continuous
 62
     7
370
    15
100
AcDbLine
 10
378.6525856641
 20
246.2077139539
 30
0.0
 11
379.8159342197
 21
246.2077139539
 31
0.0
  0
LINE
  5
B6
330
1F
100
AcDbEntity
  8
0
  6
Continuous
 62
     7
370
    15
100
AcDbLine
 10
379.9790870336
 20
246.2077139539
 30
0.0
 11
380.041433492
 21
246.2077139539
 31
0.0
  0
LINE
  5
B7
330
1F
100
AcDbEntity
  8
0
  6
Continuous
 62
     7
370
    15
100
AcDbLine
 10
376.4525782254
 20
246.2077139539
 30
0.0
 11
378.6525856641
 21
246.2077139539
 31
0.0
  0
LINE
  5
B8
330
1F
100
AcDbEntity
  8
0
  6
Continuous
 62
     7
370
    15
100
AcDbLine
 10
378.6525856641
 20
229.1077141312
 30
0.0
 11
379.5160930541
 21
229.1077141312
 31
0.0
  0
LINE
  5
B9
330
1F
100
AcDbEntity
  8
0
  6
Continuous
 62
     7
370
    15
100
AcDbLine
 10
376.5525799182
 20
229.1077141312
 30
0.0
 11
378.6525856641
 21
229.1077141312
 31
0.0
  0
LINE
  5
BA
330
1F
100
AcDbEntity
  8
0
  6
Continuous
 62
     7
370
    15
100
AcDbLine
 10
378.6525856641
 20
229.507714383
 30
0.0
 11
379.755971947
 21
229.507714383
 31
0.0
  0
LINE
  5
BB
330
1F
100
AcDbEntity
  8
0
  6
Continuous
 62
     7
370
    15
100
AcDbLine
 10
376.5525799182
 20
229.507714383
 30
0.0
 11
378.6525856641
 21
229.507714383
 31
0.0
  0
ARC
  5
BC
330
1F
100
AcDbEntity
  8
0
  6
Continuous
 62
     7
370
    15
100
AcDbCircle
 10
375.5183361808
 20
245.1099682287
 30
0.0
 40
0.80271497526651
100
AcDbArc
 50
125.4660676112
 51
180.1609042628
  0
ARC
  5
BD
330
1F
100
AcDbEntity
  8
0
  6
Continuous
 62
     7
370
    15
100
AcDbCircle
 10
375.5183361808
 20
230.7054599383
 30
0.0
 40
0.8027149752665016
100
AcDbArc
 50
179.8390957372
 51
234.5339323887
  0
LINE
  5
BE
330
1F
100
AcDbEntity
  8
0
  6
Continuous
 62
     7
370
    15
100
AcDbLine
 10
375.5034636643
 20
231.1577139084
 30
0.0
 11
375.5034636643
 21
230.7077142072
 31
0.0
  0
LINE
  5
BF
330
1F
100
AcDbEntity
  8
0
  6
Continuous
 62
     7
370
    15
100
AcDbLine
 10
375.5034636643
 20
245.1077139598
 30
0.0
 11
375.5034636643
 21
244.6577142586
 31
0.0
  0
LINE
  5
C0
330
1F
100
AcDbEntity
  8
0
  6
Continuous
 62
     7
370
    15
100
AcDbLine
 10
374.7156243709
 20
243.8792720099
 30
0.0
 11
374.7156243709
 21
245.1077139598
 31
0.0
  0
LINE
  5
C1
330
1F
100
AcDbEntity
  8
0
  6
Continuous
 62
     7
370
    15
100
AcDbLine
 10
374.7156243709
 20
230.7077142072
 30
0.0
 11
374.7156243709
 21
231.9361561571
 31
0.0
  0
SPLINE
  5
C2
330
1F
100
AcDbEntity
  8
0
  6
Continuous
 62
     7
370
    15
100
AcDbSpline
210
0.0
220
0.0
230
1.0
 70
    24
 71
     3
 72
    12
 73
     8
 74
     0
 42
0.00000001
 43
0.00000001
 40
0.0
 40
0.0
 40
0.0
 40
0.0
 40
0.2185048530107646
 40
0.4370162709322625
 40
0.655520512326239
 40
0.874027022610886
 40
1.0
 40
1.0
 40
1.0
 40
1.0
 10
381.7119281676377
 20
244.6001091633913
 30
0.0
 10
381.5152086094024
 20
244.6001091633913
 30
0.0
 10
381.1217635825537
 20
244.6001091633913
 30
0.0
 10
380.5610042628088
 20
244.6001091633913
 30
0.0
 10
380.1433440256445
 20
244.6001091633913
 30
0.0
 10
379.9167793304838
 20
244.6001091633913
 30
0.0
 10
379.9343068799937
 20
244.6001091633913
 30
0.0
 10
379.9407165434922
 20
244.6001091633913
 30
0.0
  0
SPLINE
  5
C3
330
1F
100
AcDbEntity
  8
0
  6
Continuous
 62
     7
370
    15
100
AcDbSpline
210
0.0
220
0.0
230
1.0
 70
    24
 71
     3
 72
     9
 73
     5
 74
     0
 42
0.00000001
 43
0.00000001
 40
0.0
 40
0.0
 40
0.0
 40
0.0
 40
0.0025230808663563
 40
1.0
 40
1.0
 40
1.0
 40
1.0
 10
382.252586999234
 20
244.6001091633913
 30
0.0
 10
382.2522394408179
 20
244.6001091633913
 30
0.0
 10
382.1144878448538
 20
244.6001091633913
 30
0.0
 10
381.9129537628526
 20
244.6001091633913
 30
0.0
 10
381.7119281676377
 20
244.6001091633913
 30
0.0
  0
SPLINE
  5
C4
330
1F
100
AcDbEntity
  8
0
  6
Continuous
 62
     7
370
    15
100
AcDbSpline
210
0.0
220
0.0
230
1.0
 70
     8
 71
     3
 72
    13
 73
     9
 74
     0
 42
0.00000001
 43
0.00000001
 40
0.0
 40
0.0
 40
0.0
 40
0.0
 40
0.1877387198033841
 40
0.3754724716890238
 40
0.5632104448785019
 40
0.7509479553634036
 40
0.9386854029058029
 40
0.9999999999999999
 40
0.9999999999999999
 40
0.9999999999999999
 40
0.9999999999999999
 10
381.4186435130204
 20
248.2149478641328
 30
0.0
 10
381.2219465531579
 20
248.2122491340349
 30
0.0
 10
380.8285578384026
 20
248.2068517452525
 30
0.0
 10
380.2955426347875
 20
247.9163100858442
 30
0.0
 10
379.9050250866982
 20
247.4614099155015
 30
0.0
 10
379.7320524567616
 20
246.8997306444125
 30
0.0
 10
379.7353492039847
 20
246.4265354520138
 30
0.0
 10
379.8626827237761
 20
246.2051017996541
 30
0.0
 10
379.8940312054718
 20
246.1505866271433
 30
0.0
  0
SPLINE
  5
C5
330
1F
100
AcDbEntity
  8
0
  6
Continuous
 62
     7
370
    15
100
AcDbSpline
210
0.0
220
0.0
230
1.0
 70
     8
 71
     3
 72
    10
 73
     6
 74
     0
 42
0.00000001
 43
0.00000001
 40
0.0
 40
0.0
 40
0.0
 40
0.0
 40
0.2093402306351941
 40
0.6046681487490184
 40
0.9999999999999999
 40
0.9999999999999999
 40
0.9999999999999999
 40
0.9999999999999999
 10
382.5558107283676
 20
247.4088332277712
 30
0.0
 10
382.5141083586823
 20
247.5018968586865
 30
0.0
 10
382.3936532765438
 20
247.7707062186965
 30
0.0
 10
381.9869481934503
 20
248.0873652360095
 30
0.0
 10
381.6080790347253
 20
248.1724201803898
 30
0.0
 10
381.4186435130204
 20
248.2149478641328
 30
0.0
  0
SPLINE
  5
C6
330
1F
100
AcDbEntity
  8
0
  6
Continuous
 62
     7
370
    15
100
AcDbSpline
210
0.0
220
0.0
230
1.0
 70
     8
 71
     3
 72
    13
 73
     9
 74
     0
 42
0.00000001
 43
0.00000001
 40
0.0
 40
0.0
 40
0.0
 40
0.0
 40
0.1768614626580366
 40
0.3537266438978727
 40
0.530591680287995
 40
0.7074549205632471
 40
0.884319107889526
 40
1.0
 40
1.0
 40
1.0
 40
1.0
 10
381.4014177706803
 20
227.5717611086544
 30
0.0
 10
381.2047506928549
 20
227.5744518455541
 30
0.0
 10
380.8114124022015
 20
227.5798333759273
 30
0.0
 10
380.2780269864865
 20
227.870508584164
 30
0.0
 10
379.8888963270493
 20
228.3248728766654
 30
0.0
 10
379.7107364863978
 20
228.8885673381646
 30
0.0
 10
379.7316982441346
 20
229.4217183327323
 30
0.0
 10
379.8977922015266
 20
229.6949881335491
 30
0.0
 10
379.9634706166352
 20
229.8030470159826
 30
0.0
  0
SPLINE
  5
C7
330
1F
100
AcDbEntity
  8
0
  6
Continuous
 62
     7
370
    15
100
AcDbSpline
210
0.0
220
0.0
230
1.0
 70
     8
 71
     3
 72
    10
 73
     6
 74
     0
 42
0.00000001
 43
0.00000001
 40
0.0
 40
0.0
 40
0.0
 40
0.0
 40
0.0588268678079464
 40
0.5294113279345829
 40
0.9999999999999999
 40
0.9999999999999999
 40
0.9999999999999999
 40
0.9999999999999999
 10
382.431535044011
 20
228.1716706824479
 30
0.0
 10
382.4208953515841
 20
228.1501904429005
 30
0.0
 10
382.3251436329151
 20
227.9568794173968
 30
0.0
 10
381.9643102379085
 20
227.7026814345892
 30
0.0
 10
381.5890491528793
 20
227.615401347498
 30
0.0
 10
381.4014177706803
 20
227.5717611086544
 30
0.0
  0
SPLINE
  5
C8
330
1F
100
AcDbEntity
  8
0
  6
Continuous
 62
     7
370
    15
100
AcDbSpline
210
0.0
220
0.0
230
1.0
 70
    24
 71
     3
 72
    12
 73
     8
 74
     0
 42
0.00000001
 43
0.00000001
 40
0.0
 40
0.0
 40
0.0
 40
0.0
 40
0.2193535926155928
 40
0.438713775642038
 40
0.6580667542651362
 40
0.8774220105919697
 40
0.9999999999999999
 40
0.9999999999999999
 40
0.9999999999999999
 40
0.9999999999999999
 10
381.7119281676377
 20
231.0414783318517
 30
0.0
 10
381.5152132343217
 20
231.0414783318517
 30
0.0
 10
381.1217774574503
 20
231.0414783318517
 30
0.0
 10
380.5609487620362
 20
231.0414783318517
 30
0.0
 10
380.1435521466128
 20
231.0414783318517
 30
0.0
 10
379.9177043449742
 20
231.0414783318517
 30
0.0
 10
379.9346768544455
 20
231.0414783318517
 30
0.0
 10
379.9407612469757
 20
231.0414783318517
 30
0.0
  0
SPLINE
  5
C9
330
1F
100
AcDbEntity
  8
0
  6
Continuous
 62
     7
370
    15
100
AcDbSpline
210
0.0
220
0.0
230
1.0
 70
    24
 71
     3
 72
     9
 73
     5
 74
     0
 42
0.00000001
 43
0.00000001
 40
0.0
 40
0.0
 40
0.0
 40
0.0
 40
0.1970130322720919
 40
1.0
 40
1.0
 40
1.0
 40
1.0
 10
382.352588692006
 20
231.0414783318517
 30
0.0
 10
382.3199364960814
 20
231.0414783318517
 30
0.0
 10
382.1542002727059
 20
231.0414783318517
 30
0.0
 10
381.9089006044417
 20
231.0414783318517
 30
0.0
 10
381.7119281676377
 20
231.0414783318517
 30
0.0
  0
SPLINE
  5
CA
330
1F
100
AcDbEntity
  8
0
  6
Continuous
 62
     7
370
    15
100
AcDbSpline
210
0.0
220
0.0
230
1.0
 70
     8
 71
     3
 72
    13
 73
     9
 74
     0
 42
0.00000001
 43
0.00000001
 40
0.0
 40
0.0
 40
0.0
 40
0.0
 40
0.1768615033144454
 40
0.3537265688979725
 40
0.5305918600777433
 40
0.7074548533138182
 40
0.8843190812971323
 40
1.0
 40
1.0
 40
1.0
 40
1.0
 10
379.8495661404694
 20
250.8313663897094
 30
0.0
 10
379.6528991261946
 20
250.8286755792799
 30
0.0
 10
379.2595611364619
 20
250.8232939042239
 30
0.0
 10
378.7261746843174
 20
250.5326198921709
 30
0.0
 10
378.3370452910908
 20
250.0782552107552
 30
0.0
 10
378.1588846607215
 20
249.5145595731951
 30
0.0
 10
378.1798466456119
 20
248.9814092052187
 30
0.0
 10
378.3459405802952
 20
248.7081393760327
 30
0.0
 10
378.4116189864243
 20
248.6000804823813
 30
0.0
  0
SPLINE
  5
CB
330
1F
100
AcDbEntity
  8
0
  6
Continuous
 62
     7
370
    15
100
AcDbSpline
210
0.0
220
0.0
230
1.0
 70
     8
 71
     3
 72
    10
 73
     6
 74
     0
 42
0.00000001
 43
0.00000001
 40
0.0
 40
0.0
 40
0.0
 40
0.0
 40
0.1474627692345064
 40
0.5737294769795925
 40
1.0
 40
1.0
 40
1.0
 40
1.0
 10
380.9381555703247
 20
250.1188403588709
 30
0.0
 10
380.9100935432638
 20
250.1791344070094
 30
0.0
 10
380.8009133604134
 20
250.4137188576003
 30
0.0
 10
380.4158585788517
 20
250.7025427111422
 30
0.0
 10
380.0383308497677
 20
250.7884250354068
 30
0.0
 10
379.8495661404694
 20
250.8313663897094
 30
0.0
  0
SPLINE
  5
CC
330
1F
100
AcDbEntity
  8
0
  6
Continuous
 62
     7
370
    15
100
AcDbSpline
210
0.0
220
0.0
230
1.0
 70
     8
 71
     3
 72
    13
 73
     9
 74
     0
 42
0.00000001
 43
0.00000001
 40
0.0
 40
0.0
 40
0.0
 40
0.0
 40
0.1768614369716905
 40
0.3537265925246405
 40
0.5305916032278976
 40
0.7074545301206586
 40
0.8843186917601957
 40
0.9999999999999999
 40
0.9999999999999999
 40
0.9999999999999999
 40
0.9999999999999999
 10
379.8323403981293
 20
224.9553425830779
 30
0.0
 10
379.6356733225539
 20
224.958033313243
 30
0.0
 10
379.2423350364006
 20
224.9634148301469
 30
0.0
 10
378.7089495869345
 20
225.2540901394045
 30
0.0
 10
378.3198192667439
 20
225.7084538016634
 30
0.0
 10
378.1416588718467
 20
226.272149303079
 30
0.0
 10
378.1626212677965
 20
226.8053007558985
 30
0.0
 10
378.3287148347603
 20
227.0785697016141
 30
0.0
 10
378.3943932440842
 20
227.186628490406
 30
0.0
  0
SPLINE
  5
CD
330
1F
100
AcDbEntity
  8
0
  6
Continuous
 62
     7
370
    15
100
AcDbSpline
210
0.0
220
0.0
230
1.0
 70
     8
 71
     3
 72
    10
 73
     6
 74
     0
 42
0.00000001
 43
0.00000001
 40
0.0
 40
0.0
 40
0.0
 40
0.0
 40
0.1474583784593854
 40
0.5737317805032035
 40
1.0
 40
1.0
 40
1.0
 40
1.0
 10
380.9209298279847
 20
225.6678686139163
 30
0.0
 10
380.8928733372766
 20
225.6075742978498
 30
0.0
 10
380.7837110059347
 20
225.3729808778454
 30
0.0
 10
380.3986306585289
 20
225.0841718725536
 30
0.0
 10
380.0211030532736
 20
224.9982855055372
 30
0.0
 10
379.8323403981293
 20
224.9553425830779
 30
0.0
  0
LINE
  5
CE
330
1F
100
AcDbEntity
  8
0
  6
Continuous
 62
     7
370
    15
100
AcDbLine
 10
784.4539415029
 20
92.9077182558
 30
0.0
 11
784.4539415029
 21
57.907706931
 31
0.0
  0
LINE
  5
CF
330
1F
100
AcDbEntity
  8
0
  6
Continuous
 62
     7
370
    15
100
AcDbLine
 10
795.0525861171
 20
92.9077182558
 30
0.0
 11
784.4539415029
 21
92.9077182558
 31
0.0
  0
LINE
  5
D0
330
1F
100
AcDbEntity
  8
0
  6
Continuous
 62
     7
370
    15
100
AcDbLine
 10
795.0525861171
 20
57.907706931
 30
0.0
 11
784.4539415029
 21
57.907706931
 31
0.0
  0
LINE
  5
D1
330
1F
100
AcDbEntity
  8
0
  6
Continuous
 62
     7
370
    15
100
AcDbLine
 10
784.4539415029
 20
417.9077212361
 30
0.0
 11
784.4539415029
 21
382.9077099112
 31
0.0
  0
LINE
  5
D2
330
1F
100
AcDbEntity
  8
0
  6
Continuous
 62
     7
370
    15
100
AcDbLine
 10
795.0525861171
 20
417.9077212361
 30
0.0
 11
784.4539415029
 21
417.9077212361
 31
0.0
  0
LINE
  5
D3
330
1F
100
AcDbEntity
  8
0
  6
Continuous
 62
     7
370
    15
100
AcDbLine
 10
795.0525861171
 20
382.9077099112
 30
0.0
 11
784.4539415029
 21
382.9077099112
 31
0.0
  0
LINE
  5
D4
330
1F
100
AcDbEntity
  8
0
  6
Continuous
 62
     7
370
    15
100
AcDbLine
 10
792.0525800374
 20
129.9077112821
 30
0.0
 11
787.0525848058
 21
129.9077112821
 31
0.0
  0
LINE
  5
D5
330
1F
100
AcDbEntity
  8
0
  6
Continuous
 62
     7
370
    15
100
AcDbLine
 10
787.0525848058
 20
345.9077168849
 30
0.0
 11
792.0525800374
 21
345.9077168849
 31
0.0
  0
LINE
  5
D6
330
1F
100
AcDbEntity
  8
0
  6
Continuous
 62
     7
370
    15
100
AcDbLine
 10
783.9904259828
 20
57.907706931
 30
0.0
 11
783.9904259828
 21
92.9077182558
 31
0.0
  0
LINE
  5
D7
330
1F
100
AcDbEntity
  8
0
  6
Continuous
 62
     7
370
    15
100
AcDbLine
 10
783.9904259828
 20
92.9077182558
 30
0.0
 11
784.4539415029
 21
92.9077182558
 31
0.0
  0
LINE
  5
D8
330
1F
100
AcDbEntity
  8
0
  6
Continuous
 62
     7
370
    15
100
AcDbLine
 10
784.4539415029
 20
57.907706931
 30
0.0
 11
783.9904259828
 21
57.907706931
 31
0.0
  0
LINE
  5
D9
330
1F
100
AcDbEntity
  8
0
  6
Continuous
 62
     7
370
    15
100
AcDbLine
 10
783.9904259828
 20
382.9077099112
 30
0.0
 11
783.9904259828
 21
417.9077212361
 31
0.0
  0
LINE
  5
DA
330
1F
100
AcDbEntity
  8
0
  6
Continuous
 62
     7
370
    15
100
AcDbLine
 10
783.9904259828
 20
417.9077212361
 30
0.0
 11
784.4539415029
 21
417.9077212361
 31
0.0
  0
LINE
  5
DB
330
1F
100
AcDbEntity
  8
0
  6
Continuous
 62
     7
370
    15
100
AcDbLine
 10
784.4539415029
 20
382.9077099112
 30
0.0
 11
783.9904259828
 21
382.9077099112
 31
0.0
  0
LINE
  5
DC
330
1F
100
AcDbEntity
  8
0
  6
Continuous
 62
     7
370
    15
100
AcDbLine
 10
783.9904259828
 20
417.9077212361
 30
0.0
 11
783.5525851634
 21
417.9077212361
 31
0.0
  0
LINE
  5
DD
330
1F
100
AcDbEntity
  8
0
  6
Continuous
 62
     7
370
    15
100
AcDbLine
 10
783.9904259828
 20
382.9077099112
 30
0.0
 11
783.5525851634
 21
382.9077099112
 31
0.0
  0
LINE
  5
DE
330
1F
100
AcDbEntity
  8
0
  6
Continuous
 62
     7
370
    15
100
AcDbLine
 10
783.9904259828
 20
92.9077182558
 30
0.0
 11
783.5525851634
 21
92.9077182558
 31
0.0
  0
LINE
  5
DF
330
1F
100
AcDbEntity
  8
0
  6
Continuous
 62
     7
370
    15
100
AcDbLine
 10
783.9904259828
 20
57.907706931
 30
0.0
 11
783.5525851634
 21
57.907706931
 31
0.0
  0
LINE
  5
E0
330
1F
100
AcDbEntity
  8
0
  6
Continuous
 62
     7
370
    15
100
AcDbLine
 10
378.3525805858
 20
244.6577142586
 30
0.0
 11
375.2525877145
 21
244.6577142586
 31
0.0
  0
LINE
  5
E1
330
1F
100
AcDbEntity
  8
0
  6
Continuous
 62
     7
370
    15
100
AcDbLine
 10
378.3525805858
 20
231.1577139084
 30
0.0
 11
375.2525877145
 21
231.1577139084
 31
0.0
  0
LINE
  5
E2
330
1F
100
AcDbEntity
  8
0
  6
Continuous
 62
     7
370
    15
100
AcDbLine
 10
378.3525805858
 20
244.6577142586
 30
0.0
 11
379.912657657
 21
244.6577142586
 31
0.0
  0
LINE
  5
E3
330
1F
100
AcDbEntity
  8
0
  6
Continuous
 62
     7
370
    15
100
AcDbLine
 10
378.3525805858
 20
231.1577139084
 30
0.0
 11
379.9120914128
 21
231.1577139084
 31
0.0
  0
LINE
  5
E4
330
1F
100
AcDbEntity
  8
0
  6
Continuous
 62
     8
370
    15
100
AcDbLine
 10
378.3525805858
 20
244.6577142586
 30
0.0
 11
378.3525805858
 21
244.4077142176
 31
0.0
  0
LINE
  5
E5
330
1F
100
AcDbEntity
  8
0
  6
Continuous
 62
     8
370
    15
100
AcDbLine
 10
378.3525805858
 20
231.4077139494
 30
0.0
 11
378.3525805858
 21
231.1577139084
 31
0.0
  0
LINE
  5
E6
330
1F
100
AcDbEntity
  8
0
  6
Continuous
 62
     7
370
    15
100
AcDbLine
 10
193.8903725731
 20
244.4077142176
 30
0.0
 11
193.8903725731
 21
231.4077139494
 31
0.0
  0
LINE
  5
E7
330
1F
100
AcDbEntity
  8
0
  6
Continuous
 62
     7
370
    15
100
AcDbLine
 10
184.100376724
 20
245.1077139598
 30
0.0
 11
184.100376724
 21
245.9077144635
 31
0.0
  0
LINE
  5
E8
330
1F
100
AcDbEntity
  8
0
  6
Continuous
 62
     7
370
    15
100
AcDbLine
 10
184.100376724
 20
229.9077137035
 30
0.0
 11
184.100376724
 21
230.7077142072
 31
0.0
  0
ARC
  5
E9
330
1F
100
AcDbEntity
  8
0
  6
Continuous
 62
     7
370
    15
100
AcDbCircle
 10
181.3703750885
 20
243.1005712264
 30
0.0
 40
3.807142857143211
100
AcDbArc
 50
54.6997515601
 51
125.3002484399
  0
LINE
  5
EA
330
1F
100
AcDbEntity
  8
0
  6
Continuous
 62
     7
370
    15
100
AcDbLine
 10
179.1703722465
 20
246.2077139539
 30
0.0
 11
179.1703722465
 21
245.9077144635
 31
0.0
  0
LINE
  5
EB
330
1F
100
AcDbEntity
  8
0
  6
Continuous
 62
     7
370
    15
100
AcDbLine
 10
183.5703722227
 20
245.9077144635
 30
0.0
 11
183.5703722227
 21
246.2077139539
 31
0.0
  0
LINE
  5
EC
330
1F
100
AcDbEntity
  8
0
  6
Continuous
 62
     7
370
    15
100
AcDbLine
 10
179.2703739393
 20
229.507714383
 30
0.0
 11
179.2703739393
 21
229.1077141312
 31
0.0
  0
LINE
  5
ED
330
1F
100
AcDbEntity
  8
0
  6
Continuous
 62
     7
370
    15
100
AcDbLine
 10
183.4703779805
 20
229.1077141312
 30
0.0
 11
183.4703779805
 21
229.507714383
 31
0.0
  0
ARC
  5
EE
330
1F
100
AcDbEntity
  8
0
  6
Continuous
 62
     7
370
    15
100
AcDbCircle
 10
179.4703750885
 20
229.9077140835
 30
0.0
 40
0.4000000000008015
100
AcDbArc
 50
270.0
 51
0.0
  0
ARC
  5
EF
330
1F
100
AcDbEntity
  8
0
  6
Continuous
 62
     7
370
    15
100
AcDbCircle
 10
183.2703750885
 20
229.9077140835
 30
0.0
 40
0.4000000000008015
100
AcDbArc
 50
180.0
 51
270.0
  0
LINE
  5
F0
330
1F
100
AcDbEntity
  8
0
  6
Continuous
 62
     7
370
    15
100
AcDbLine
 10
179.8703766453
 20
245.1077139598
 30
0.0
 11
179.8703766453
 21
244.6577142586
 31
0.0
  0
LINE
  5
F1
330
1F
100
AcDbEntity
  8
0
  6
Continuous
 62
     7
370
    15
100
AcDbLine
 10
179.8703766453
 20
243.6577140947
 30
0.0
 11
179.8703766453
 21
243.1690095586
 31
0.0
  0
LINE
  5
F2
330
1F
100
AcDbEntity
  8
0
  6
Continuous
 62
     7
370
    15
100
AcDbLine
 10
179.8703766453
 20
242.3728949984
 30
0.0
 11
179.8703766453
 21
242.2171978873
 31
0.0
  0
LINE
  5
F3
330
1F
100
AcDbEntity
  8
0
  6
Continuous
 62
     7
370
    15
100
AcDbLine
 10
179.8703766453
 20
232.9180872661
 30
0.0
 11
179.8703766453
 21
232.1577140723
 31
0.0
  0
LINE
  5
F4
330
1F
100
AcDbEntity
  8
0
  6
Continuous
 62
     7
370
    15
100
AcDbLine
 10
179.8703766453
 20
231.1577139084
 30
0.0
 11
179.8703766453
 21
230.7077142072
 31
0.0
  0
LINE
  5
F5
330
1F
100
AcDbEntity
  8
0
  6
Continuous
 62
     7
370
    15
100
AcDbLine
 10
182.8703752744
 20
230.7077142072
 30
0.0
 11
182.8703752744
 21
231.1577139084
 31
0.0
  0
LINE
  5
F6
330
1F
100
AcDbEntity
  8
0
  6
Continuous
 62
     7
370
    15
100
AcDbLine
 10
182.8703752744
 20
232.1577140723
 30
0.0
 11
182.8703752744
 21
232.6448563148
 31
0.0
  0
LINE
  5
F7
330
1F
100
AcDbEntity
  8
0
  6
Continuous
 62
     7
370
    15
100
AcDbLine
 10
182.8703752744
 20
241.9527735223
 30
0.0
 11
182.8703752744
 21
242.1407120896
 31
0.0
  0
LINE
  5
F8
330
1F
100
AcDbEntity
  8
0
  6
Continuous
 62
     7
370
    15
100
AcDbLine
 10
182.8703752744
 20
242.8957911802
 30
0.0
 11
182.8703752744
 21
243.6577140947
 31
0.0
  0
LINE
  5
F9
330
1F
100
AcDbEntity
  8
0
  6
Continuous
 62
     7
370
    15
100
AcDbLine
 10
182.8703752744
 20
244.6577142586
 30
0.0
 11
182.8703752744
 21
245.1077139598
 31
0.0
  0
SPLINE
  5
FA
330
1F
100
AcDbEntity
  8
0
  6
Continuous
 62
     7
370
    15
100
AcDbSpline
210
0.0
220
0.0
230
1.0
 70
     8
 71
     3
 72
    15
 73
    11
 74
     0
 42
0.00000001
 43
0.00000001
 40
0.0
 40
0.0
 40
0.0
 40
0.0
 40
0.1356020697477454
 40
0.2953298537971245
 40
0.4038071763059135
 40
0.5319604563897418
 40
0.673841799752955
 40
0.8261089327295112
 40
0.9126121771622892
 40
1.0
 40
1.0
 40
1.0
 40
1.0
 10
182.8703752744306
 20
232.4737593193528
 30
0.0
 10
182.9147567472251
 20
232.4664362119213
 30
0.0
 10
183.0114158461321
 20
232.450487102508
 30
0.0
 10
183.2182669848932
 20
232.4981530071811
 30
0.0
 10
183.4115273332166
 20
232.5858841817248
 30
0.0
 10
183.5581159419623
 20
232.7055425646907
 30
0.0
 10
183.6568196012225
 20
232.8564395434457
 30
0.0
 10
183.6864873948785
 20
232.978275744058
 30
0.0
 10
183.6652935572699
 20
233.1075383791129
 30
0.0
 10
183.6190436458729
 20
233.174209176493
 30
0.0
 10
183.59580105425
 20
233.2077141513106
 30
0.0
  0
SPLINE
  5
FB
330
1F
100
AcDbEntity
  8
0
  6
Continuous
 62
     7
370
    15
100
AcDbSpline
210
0.0
220
0.0
230
1.0
 70
     8
 71
     3
 72
    20
 73
    16
 74
     0
 42
0.00000001
 43
0.00000001
 40
0.0
 40
0.0
 40
0.0
 40
0.0
 40
0.0607085896928647
 40
0.2265340709124097
 40
0.3908033765635961
 40
0.4705947777165487
 40
0.547620336223349
 40
0.6228558366353615
 40
0.700337122134323
 40
0.7786472312326198
 40
0.8566576573408019
 40
0.9330985812596475
 40
0.9703702582868211
 40
0.9892323133334554
 40
1.0
 40
1.0
 40
1.0
 40
1.0
 10
179.1341773259747
 20
233.2077141513106
 30
0.0
 10
179.1804518869058
 20
233.1543807538199
 30
0.0
 10
179.3531253869893
 20
232.9553672087798
 30
0.0
 10
179.7700988011298
 20
232.9374404557083
 30
0.0
 10
180.3350532515393
 20
232.862417493117
 30
0.0
 10
180.8546659744948
 20
232.8194753099567
 30
0.0
 10
181.2485570258107
 20
232.788924749641
 30
0.0
 10
181.6414675248373
 20
232.7612412589946
 30
0.0
 10
182.0226292996267
 20
232.7299347709035
 30
0.0
 10
182.3783564238302
 20
232.6974617676676
 30
0.0
 10
182.6809764686475
 20
232.6666363650322
 30
0.0
 10
182.8734970943953
 20
232.6437338668078
 30
0.0
 10
182.9616028758541
 20
232.6357055400035
 30
0.0
 10
183.0070415877087
 20
232.6279119296593
 30
0.0
 10
183.0064839610983
 20
232.631870331227
 30
0.0
 10
183.006281315099
 20
232.6333088462231
 30
0.0
  0
SPLINE
  5
FC
330
1F
100
AcDbEntity
  8
0
  6
Continuous
 62
     7
370
    15
100
AcDbSpline
210
0.0
220
0.0
230
1.0
 70
     8
 71
     3
 72
    18
 73
    14
 74
     0
 42
0.00000001
 43
0.00000001
 40
0.0
 40
0.0
 40
0.0
 40
0.0
 40
0.0057535993643134
 40
0.1156386300432939
 40
0.238393074484563
 40
0.3593084287928258
 40
0.4757045805239178
 40
0.5872130566666578
 40
0.7047314609770277
 40
0.8264987827960724
 40
0.8891456746718793
 40
0.9517930430030114
 40
1.0
 40
1.0
 40
1.0
 40
1.0
 10
183.3769924032796
 20
241.854538082796
 30
0.0
 10
183.3723452437531
 20
241.85749155971
 30
0.0
 10
183.2789443781031
 20
241.9168519709181
 30
0.0
 10
183.0565737522379
 20
241.9230344065232
 30
0.0
 10
182.6652015848333
 20
241.9822321934674
 30
0.0
 10
182.1533188467468
 20
242.0277779915188
 30
0.0
 10
181.6022888395155
 20
242.073930107111
 30
0.0
 10
181.0401728695268
 20
242.1128262289237
 30
0.0
 10
180.5059005536254
 20
242.1575556365595
 30
0.0
 10
180.1082478773148
 20
242.1986277316794
 30
0.0
 10
179.8935344892907
 20
242.2197477209607
 30
0.0
 10
179.7974626121436
 20
242.2220371352759
 30
0.0
 10
179.7820270944126
 20
242.205961996338
 30
0.0
 10
179.7753146875012
 20
242.1989714388725
 30
0.0
  0
SPLINE
  5
FD
330
1F
100
AcDbEntity
  8
0
  6
Continuous
 62
     7
370
    15
100
AcDbSpline
210
0.0
220
0.0
230
1.0
 70
     8
 71
     3
 72
    12
 73
     8
 74
     0
 42
0.00000001
 43
0.00000001
 40
0.0
 40
0.0
 40
0.0
 40
0.0
 40
0.2236729820054967
 40
0.4523097742282867
 40
0.6822372678484837
 40
0.9102273613192214
 40
1.0
 40
1.0
 40
1.0
 40
1.0
 10
179.0760776984799
 20
243.0095648054954
 30
0.0
 10
179.0633422794576
 20
242.9670168778464
 30
0.0
 10
179.0375888136117
 20
242.8809767876384
 30
0.0
 10
179.1587118185971
 20
242.7893617357546
 30
0.0
 10
179.3903931212604
 20
242.693056372755
 30
0.0
 10
179.6352495612772
 20
242.630565314414
 30
0.0
 10
179.818582420168
 20
242.6357854573455
 30
0.0
 10
179.8703766453374
 20
242.6372602243897
 30
0.0
  0
SPLINE
  5
FE
330
1F
100
AcDbEntity
  8
0
  6
Continuous
 62
     7
370
    15
100
AcDbSpline
210
0.0
220
0.0
230
1.0
 70
     8
 71
     3
 72
    19
 73
    15
 74
     0
 42
0.00000001
 43
0.00000001
 40
0.0
 40
0.0
 40
0.0
 40
0.0
 40
0.0979033461140013
 40
0.1753767258512808
 40
0.2884821220827502
 40
0.3734524649498238
 40
0.4570021434395499
 40
0.6168865294898215
 40
0.679665710597983
 40
0.7634253193335143
 40
0.8137536452962887
 40
0.8702971820376518
 40
0.9323988135077979
 40
1.0
 40
1.0
 40
1.0
 40
1.0
 10
179.2523137319196
 20
242.5144341436204
 30
0.0
 10
179.3028208363842
 20
242.4880571492121
 30
0.0
 10
179.3932954827045
 20
242.440807375831
 30
0.0
 10
179.7679389005417
 20
242.3801587425772
 30
0.0
 10
180.2544513045528
 20
242.326271967298
 30
0.0
 10
180.8457791957429
 20
242.2730384448204
 30
0.0
 10
181.5998818426173
 20
242.2214888046567
 30
0.0
 10
182.2409717862143
 20
242.154544527403
 30
0.0
 10
182.8902495348229
 20
242.1190256065752
 30
0.0
 10
183.2685713248808
 20
242.1972096096509
 30
0.0
 10
183.5204402727235
 20
242.3054134416194
 30
0.0
 10
183.654025171688
 20
242.3937494293905
 30
0.0
 10
183.7157869164984
 20
242.4675929322199
 30
0.0
 10
183.6443509531218
 20
242.5481079580833
 30
0.0
 10
183.6071184861768
 20
242.5900724378404
 30
0.0
  0
SPLINE
  5
FF
330
1F
100
AcDbEntity
  8
0
  6
Continuous
 62
     7
370
    15
100
AcDbSpline
210
0.0
220
0.0
230
1.0
 70
     8
 71
     3
 72
    25
 73
    21
 74
     0
 42
0.00000001
 43
0.00000001
 40
0.0
 40
0.0
 40
0.0
 40
0.0
 40
0.0176268882740728
 40
0.0344971213907655
 40
0.0503149791706755
 40
0.0649736838786139
 40
0.0909457265548138
 40
0.1134393592787898
 40
0.1538404791881554
 40
0.1912343311250533
 40
0.2995714530929409
 40
0.3999641476913028
 40
0.5012962946895908
 40
0.5949066934840759
 40
0.6784888340592545
 40
0.7336299262195819
 40
0.8075206488445794
 40
0.8952855986171407
 40
0.9453086507154752
 40
0.9999999999999999
 40
0.9999999999999999
 40
0.9999999999999999
 40
0.9999999999999999
 10
183.2497960913289
 20
241.9644904916164
 30
0.0
 10
183.2895071369264
 20
241.9688844837681
 30
0.0
 10
183.3672245842281
 20
241.9774838507289
 30
0.0
 10
183.4690992045971
 20
242.0234924363585
 30
0.0
 10
183.5501207590656
 20
242.0824457543321
 30
0.0
 10
183.6263221110921
 20
242.1660244350102
 30
0.0
 10
183.6793714463317
 20
242.2696699970029
 30
0.0
 10
183.7035340976156
 20
242.402004146372
 30
0.0
 10
183.6806288507454
 20
242.5338708289845
 30
0.0
 10
183.5094145897137
 20
242.7790837784753
 30
0.0
 10
183.1666073032106
 20
242.8661632508316
 30
0.0
 10
182.6714992386078
 20
242.9247188802319
 30
0.0
 10
182.058285176947
 20
242.9830759235959
 30
0.0
 10
181.4088156608476
 20
243.0326986782777
 30
0.0
 10
180.8691125144609
 20
243.0721789192081
 30
0.0
 10
180.4231056450019
 20
243.1113565193376
 30
0.0
 10
180.0344010690053
 20
243.1495841524842
 30
0.0
 10
179.7742392557643
 20
243.1774254463703
 30
0.0
 10
179.643807415831
 20
243.1999209504098
 30
0.0
 10
179.6351425433309
 20
243.2123835131014
 30
0.0
 10
179.6306169617284
 20
243.2188925926563
 30
0.0
  0
SPLINE
  5
100
330
1F
100
AcDbEntity
  8
0
  6
Continuous
 62
     7
370
    15
100
AcDbSpline
210
0.0
220
0.0
230
1.0
 70
     8
 71
     3
 72
    12
 73
     8
 74
     0
 42
0.00000001
 43
0.00000001
 40
0.0
 40
0.0
 40
0.0
 40
0.0
 40
0.1756476026937465
 40
0.5723156357634481
 40
0.7586165168330588
 40
0.9207514297076087
 40
1.0
 40
1.0
 40
1.0
 40
1.0
 10
179.7189435947049
 20
242.4004048702297
 30
0.0
 10
179.6533796493243
 20
242.3912335528197
 30
0.0
 10
179.4397515069063
 20
242.3613504899496
 30
0.0
 10
179.2238466817797
 20
242.287419968736
 30
0.0
 10
179.0626850395734
 20
242.0724844276075
 30
0.0
 10
179.0314737760896
 20
241.9122669489709
 30
0.0
 10
179.0624506250657
 20
241.8336036933715
 30
0.0
 10
179.072620629083
 20
241.8077777733085
 30
0.0
  0
LINE
  5
101
330
1F
100
AcDbEntity
  8
0
  6
Continuous
 62
     7
370
    15
100
AcDbLine
 10
179.2301333535
 20
233.1099737097
 30
0.0
 11
178.111674546
 21
233.1099737097
 31
0.0
  0
LINE
  5
102
330
1F
100
AcDbEntity
  8
0
  6
Continuous
 62
     7
370
    15
100
AcDbLine
 10
178.111674546
 20
232.3099741374
 30
0.0
 11
179.8703766453
 21
232.3099741374
 31
0.0
  0
LINE
  5
103
330
1F
100
AcDbEntity
  8
0
  6
Continuous
 62
     7
370
    15
100
AcDbLine
 10
176.7013839471
 20
245.9077144635
 30
0.0
 11
176.7013839471
 21
245.9611844865
 31
0.0
  0
LINE
  5
104
330
1F
100
AcDbEntity
  8
0
  6
Continuous
 62
     7
370
    15
100
AcDbLine
 10
173.7013853181
 20
245.9611844865
 30
0.0
 11
173.7013853181
 21
245.9077144635
 31
0.0
  0
SPLINE
  5
105
330
1F
100
AcDbEntity
  8
0
  6
Continuous
 62
     7
370
    15
100
AcDbSpline
210
0.0
220
0.0
230
1.0
 70
     8
 71
     3
 72
    15
 73
    11
 74
     0
 42
0.00000001
 43
0.00000001
 40
0.0
 40
0.0
 40
0.0
 40
0.0
 40
0.1077552675361844
 40
0.2352510372338785
 40
0.3627912513738016
 40
0.4902571009683765
 40
0.617663018955488
 40
0.7450977887964529
 40
0.8724973178809208
 40
1.0
 40
1.0
 40
1.0
 40
1.0
 10
173.7174338686574
 20
229.9077137035307
 30
0.0
 10
173.7339768786957
 20
229.595192995374
 30
0.0
 10
173.7700935378574
 20
228.9128985476686
 30
0.0
 10
174.106290700181
 20
227.9037442974092
 30
0.0
 10
174.6643785819736
 20
226.9402660251123
 30
0.0
 10
175.4192086693874
 20
226.1193470719737
 30
0.0
 10
176.334364213849
 20
225.4840685170246
 30
0.0
 10
177.3616229081775
 20
225.0639126912516
 30
0.0
 10
178.4576020995764
 20
224.8501044627558
 30
0.0
 10
179.193358896482
 20
224.915635010101
 30
0.0
 10
179.5613861668218
 20
224.9484135431227
 30
0.0
  0
SPLINE
  5
106
330
1F
100
AcDbEntity
  8
0
  6
Continuous
 62
     7
370
    15
100
AcDbSpline
210
0.0
220
0.0
230
1.0
 70
     8
 71
     3
 72
    15
 73
    11
 74
     0
 42
0.00000001
 43
0.00000001
 40
0.0
 40
0.0
 40
0.0
 40
0.0
 40
0.1316496999535092
 40
0.2633111012117089
 40
0.3951881764747674
 40
0.5266680118191072
 40
0.6575458254322917
 40
0.7882120828148513
 40
0.9184591766823333
 40
1.0
 40
1.0
 40
1.0
 40
1.0
 10
179.0636948335278
 20
227.9060984623608
 30
0.0
 10
178.911513360613
 20
227.8942842897957
 30
0.0
 10
178.607136888571
 20
227.8706548945968
 30
0.0
 10
178.1562813969827
 20
227.9721346127844
 30
0.0
 10
177.7372512146836
 20
228.1589851999278
 30
0.0
 10
177.3668581354257
 20
228.4315822390598
 30
0.0
 10
177.0645967554484
 20
228.777492647142
 30
0.0
 10
176.8454394415803
 20
229.1792007915696
 30
0.0
 10
176.7280664430714
 20
229.5655138626628
 30
0.0
 10
176.7178925110762
 20
229.8125874751369
 30
0.0
 10
176.7139754283536
 20
229.9077137035307
 30
0.0
  0
SPLINE
  5
107
330
1F
100
AcDbEntity
  8
0
  6
Continuous
 62
     7
370
    15
100
AcDbSpline
210
0.0
220
0.0
230
1.0
 70
     8
 71
     3
 72
    15
 73
    11
 74
     0
 42
0.00000001
 43
0.00000001
 40
0.0
 40
0.0
 40
0.0
 40
0.0
 40
0.1249271214721239
 40
0.2499164818036735
 40
0.3749670227679549
 40
0.4999570499749355
 40
0.6249205129505147
 40
0.7499166961711446
 40
0.8748739392863579
 40
1.0
 40
1.0
 40
1.0
 40
1.0
 10
179.7322652328122
 20
250.8382348936972
 30
0.0
 10
179.3658885734075
 20
250.881566750271
 30
0.0
 10
178.6329527252549
 20
250.9682520514075
 30
0.0
 10
177.5289266476666
 20
250.8030623097093
 30
0.0
 10
176.4881273555488
 20
250.4141315103614
 30
0.0
 10
175.5529383787086
 20
249.8091170131919
 30
0.0
 10
174.7722948700613
 20
249.0129231689864
 30
0.0
 10
174.1843325426793
 20
248.0685598933474
 30
0.0
 10
173.7884962268694
 20
247.020117420553
 30
0.0
 10
173.7304353522341
 20
246.2809951681595
 30
0.0
 10
173.7013853180516
 20
245.911184571403
 30
0.0
  0
SPLINE
  5
108
330
1F
100
AcDbEntity
  8
0
  6
Continuous
 62
     7
370
    15
100
AcDbSpline
210
0.0
220
0.0
230
1.0
 70
     8
 71
     3
 72
    15
 73
    11
 74
     0
 42
0.00000001
 43
0.00000001
 40
0.0
 40
0.0
 40
0.0
 40
0.0
 40
0.124252924346217
 40
0.2486334082690787
 40
0.3735416323009712
 40
0.4985834792505283
 40
0.6236638858843534
 40
0.7490699377483916
 40
0.8744384149534294
 40
0.9999999999999999
 40
0.9999999999999999
 40
0.9999999999999999
 40
0.9999999999999999
 10
176.7013839471448
 20
245.911184571403
 30
0.0
 10
176.7149406251043
 20
246.0631408300394
 30
0.0
 10
176.7420678984752
 20
246.367209347472
 30
0.0
 10
176.9165386468295
 20
246.7945248432098
 30
0.0
 10
177.1698678682789
 20
247.176166098184
 30
0.0
 10
177.4996928306834
 20
247.4960960515298
 30
0.0
 10
177.8906187495414
 20
247.736672102074
 30
0.0
 10
178.3233168881374
 20
247.8882959060364
 30
0.0
 10
178.7808487209081
 20
247.9417533781472
 30
0.0
 10
179.0827679528845
 20
247.9010633715375
 30
0.0
 10
179.2338437426198
 20
247.8807027113614
 30
0.0
  0
LINE
  5
109
330
1F
100
AcDbEntity
  8
0
  6
Continuous
 62
     7
370
    15
100
AcDbLine
 10
194.6044436681
 20
230.5228508671
 30
0.0
 11
179.0634787667
 21
227.9064328072
 31
0.0
  0
LINE
  5
10A
330
1F
100
AcDbEntity
  8
0
  6
Continuous
 62
     7
370
    15
100
AcDbLine
 10
179.5615351784
 20
224.9480652285
 30
0.0
 11
195.1025075305
 21
227.5644837541
 31
0.0
  0
LINE
  5
10B
330
1F
100
AcDbEntity
  8
0
  6
Continuous
 62
     7
370
    15
100
AcDbLine
 10
179.2340598095
 20
247.8802770969
 30
0.0
 11
194.7750321615
 21
245.2638581057
 31
0.0
  0
LINE
  5
10C
330
1F
100
AcDbEntity
  8
0
  6
Continuous
 62
     7
370
    15
100
AcDbLine
 10
195.2730885732
 20
248.2222252187
 30
0.0
 11
179.7321236718
 21
250.8386437443
 31
0.0
  0
SPLINE
  5
10D
330
1F
100
AcDbEntity
  8
0
  6
Continuous
 62
     7
370
    15
100
AcDbSpline
210
0.0
220
0.0
230
1.0
 70
     8
 71
     3
 72
    12
 73
     8
 74
     0
 42
0.00000001
 43
0.00000001
 40
0.0
 40
0.0
 40
0.0
 40
0.0
 40
0.152613827895301
 40
0.2973906389382041
 40
0.5623707939600926
 40
0.7966024113086981
 40
1.0
 40
1.0
 40
1.0
 40
1.0
 10
195.1021573531735
 20
227.5647929531512
 30
0.0
 10
195.3533769490908
 20
227.6175310414588
 30
0.0
 10
195.8429155261252
 20
227.7202990146792
 30
0.0
 10
196.6924378017031
 20
228.149544248441
 30
0.0
 10
197.5044308255375
 20
228.8939366202569
 30
0.0
 10
198.068866310814
 20
229.9649801903416
 30
0.0
 10
198.1505560491678
 20
230.6999058297137
 30
0.0
 10
198.1885231125462
 20
231.0414783318517
 30
0.0
  0
SPLINE
  5
10E
330
1F
100
AcDbEntity
  8
0
  6
Continuous
 62
     7
370
    15
100
AcDbSpline
210
0.0
220
0.0
230
1.0
 70
     8
 71
     3
 72
    11
 73
     7
 74
     0
 42
0.00000001
 43
0.00000001
 40
0.0
 40
0.0
 40
0.0
 40
0.0
 40
0.2003549870074007
 40
0.4328033447413612
 40
0.699019169605306
 40
1.0
 40
1.0
 40
1.0
 40
1.0
 10
195.190208314668
 20
231.0414783318517
 30
0.0
 10
195.1769807514153
 20
230.9850516551963
 30
0.0
 10
195.1484068002297
 20
230.8631597334934
 30
0.0
 10
195.0325224062785
 20
230.6974610304455
 30
0.0
 10
194.8477695584518
 20
230.5585512708313
 30
0.0
 10
194.6901485111567
 20
230.5351633350968
 30
0.0
 10
194.6065074789632
 20
230.5227526125488
 30
0.0
  0
SPLINE
  5
10F
330
1F
100
AcDbEntity
  8
0
  6
Continuous
 62
     7
370
    15
100
AcDbSpline
210
0.0
220
0.0
230
1.0
 70
     8
 71
     3
 72
    12
 73
     8
 74
     0
 42
0.00000001
 43
0.00000001
 40
0.0
 40
0.0
 40
0.0
 40
0.0
 40
0.2034065952035427
 40
0.437640713017492
 40
0.7026160167115573
 40
0.8473899920914802
 40
1.0
 40
1.0
 40
1.0
 40
1.0
 10
198.1885231125462
 20
244.6001091633913
 30
0.0
 10
198.1670853838845
 20
244.943118037023
 30
0.0
 10
198.120960906713
 20
245.6811208922269
 30
0.0
 10
197.6088545334855
 20
246.7782301084746
 30
0.0
 10
196.8336497263436
 20
247.5609858819759
 30
0.0
 10
196.0057979606508
 20
248.0307147809039
 30
0.0
 10
195.5218094999861
 20
248.1569758072951
 30
0.0
 10
195.2734387505162
 20
248.2217698019919
 30
0.0
  0
SPLINE
  5
110
330
1F
100
AcDbEntity
  8
0
  6
Continuous
 62
     7
370
    15
100
AcDbSpline
210
0.0
220
0.0
230
1.0
 70
     8
 71
     3
 72
    12
 73
     8
 74
     0
 42
0.00000001
 43
0.00000001
 40
0.0
 40
0.0
 40
0.0
 40
0.0
 40
0.1555537791798699
 40
0.3022028942782866
 40
0.5679666328104833
 40
0.7999459153798593
 40
1.0
 40
1.0
 40
1.0
 40
1.0
 10
194.773109911691
 20
245.2647763897654
 30
0.0
 10
194.8136542464997
 20
245.2490268790561
 30
0.0
 10
194.8924219588008
 20
245.2184294371621
 30
0.0
 10
195.0220515187701
 20
245.1233849469823
 30
0.0
 10
195.1364831966606
 20
244.9772123580556
 30
0.0
 10
195.2006281888099
 20
244.7829594798091
 30
0.0
 10
195.1935061785591
 20
244.6579808274604
 30
0.0
 10
195.190208314668
 20
244.6001091633913
 30
0.0
  0
LINE
  5
111
330
1F
100
AcDbEntity
  8
0
  6
Continuous
 62
     7
370
    15
100
AcDbLine
 10
195.1893663991
 20
244.6501090785
 30
0.0
 11
195.1893663991
 21
244.4077142176
 31
0.0
  0
LINE
  5
112
330
1F
100
AcDbEntity
  8
0
  6
Continuous
 62
     7
370
    15
100
AcDbLine
 10
195.1893663991
 20
231.4077139494
 30
0.0
 11
195.1893663991
 21
230.9914784168
 31
0.0
  0
LINE
  5
113
330
1F
100
AcDbEntity
  8
0
  6
Continuous
 62
     7
370
    15
100
AcDbLine
 10
198.1893650282
 20
230.9914784168
 30
0.0
 11
198.1893650282
 21
231.410458557
 31
0.0
  0
LINE
  5
114
330
1F
100
AcDbEntity
  8
0
  6
Continuous
 62
     7
370
    15
100
AcDbLine
 10
198.1893650282
 20
244.40496961
 30
0.0
 11
198.1893650282
 21
244.6501090785
 31
0.0
  0
LINE
  5
115
330
1F
100
AcDbEntity
  8
0
  6
Continuous
 62
     7
370
    15
100
AcDbLine
 10
184.4886488307
 20
243.5077138838
 30
0.0
 11
182.8703752744
 21
243.5077138838
 31
0.0
  0
LINE
  5
116
330
1F
100
AcDbEntity
  8
0
  6
Continuous
 62
     7
370
    15
100
AcDbLine
 10
183.4972969282
 20
242.7077143115
 30
0.0
 11
184.4886488307
 21
242.7077143115
 31
0.0
  0
LINE
  5
117
330
1F
100
AcDbEntity
  8
0
  6
Continuous
 62
     7
370
    15
100
AcDbLine
 10
184.8268753874
 20
244.7758529929
 30
0.0
 11
184.5603457677
 21
243.5676058416
 31
0.0
  0
LINE
  5
118
330
1F
100
AcDbEntity
  8
0
  6
Continuous
 62
     7
370
    15
100
AcDbLine
 10
185.3285006273
 20
243.3360557665
 30
0.0
 11
185.6080911148
 21
244.6035252546
 31
0.0
  0
SPLINE
  5
119
330
1F
100
AcDbEntity
  8
0
  6
Continuous
 62
     7
370
    15
100
AcDbSpline
210
0.0
220
0.0
230
1.0
 70
     8
 71
     3
 72
    11
 73
     7
 74
     0
 42
0.00000001
 43
0.00000001
 40
0.0
 40
0.0
 40
0.0
 40
0.0
 40
0.2541309399275824
 40
0.5022690019548702
 40
0.7495126202113759
 40
1.0
 40
1.0
 40
1.0
 40
1.0
 10
184.488648830663
 20
242.7077143114981
 30
0.0
 10
184.588737575098
 20
242.7179604229763
 30
0.0
 10
184.7865547861335
 20
242.738211023661
 30
0.0
 10
185.0447001123317
 20
242.8922435114308
 30
0.0
 10
185.2481490981673
 20
243.1113176441279
 30
0.0
 10
185.3098875795167
 20
243.298367427988
 30
0.0
 10
185.3409579980481
 20
243.3925018307743
 30
0.0
  0
LINE
  5
11A
330
1F
100
AcDbEntity
  8
0
  6
Continuous
 62
     7
370
    15
100
AcDbLine
 10
194.4689846623
 20
244.4077142176
 30
0.0
 11
194.4689846623
 21
231.4077139494
 31
0.0
  0
LINE
  5
11B
330
1F
100
AcDbEntity
  8
0
  6
Continuous
 62
     7
370
    15
100
AcDbLine
 10
194.4689846623
 20
244.4077142176
 30
0.0
 11
197.1879622924
 21
244.4077142176
 31
0.0
  0
LWPOLYLINE
  5
11C
330
1F
100
AcDbEntity
  8
0
  6
Continuous
 62
     7
370
    15
100
AcDbPolyline
 90
        9
 70
   128
 43
0.0
 10
197.9184768188
 20
243.2077139278
 10
197.904439925
 20
243.441822346
 10
197.8628731358
 20
243.6669341882
 10
197.795363425
 20
243.8743983989
 10
197.7045184958
 20
244.0562423912
 10
197.5938177693
 20
244.2054775205
 10
197.4675229776
 20
244.3163696338
 10
197.3304844487
 20
244.3846565333
 10
197.1879622924
 20
244.4077142176
  0
LINE
  5
11D
330
1F
100
AcDbEntity
  8
0
  6
Continuous
 62
     7
370
    15
100
AcDbLine
 10
197.9184768188
 20
243.2077139278
 30
0.0
 11
197.9184768188
 21
232.6077142392
 31
0.0
  0
LWPOLYLINE
  5
11E
330
1F
100
AcDbEntity
  8
0
  6
Continuous
 62
     7
370
    15
100
AcDbPolyline
 90
        9
 70
   128
 43
0.0
 10
197.1879622924
 20
231.4077139494
 10
197.3304844487
 20
231.4307716337
 10
197.4675229776
 20
231.4990585332
 10
197.5938177693
 20
231.6099506465
 10
197.7045184958
 20
231.7591857758
 10
197.795363425
 20
231.9410297682
 10
197.8628731358
 20
232.1484939788
 10
197.904439925
 20
232.373605821
 10
197.9184768188
 20
232.6077142392
  0
LINE
  5
11F
330
1F
100
AcDbEntity
  8
0
  6
Continuous
 62
     7
370
    15
100
AcDbLine
 10
197.1879622924
 20
231.4077139494
 30
0.0
 11
194.4689846623
 21
231.4077139494
 31
0.0
  0
LINE
  5
120
330
1F
100
AcDbEntity
  8
0
  6
Continuous
 62
     7
370
    15
100
AcDbLine
 10
197.1879622924
 20
244.4077142176
 30
0.0
 11
198.1399900305
 21
244.4077142176
 31
0.0
  0
LWPOLYLINE
  5
121
330
1F
100
AcDbEntity
  8
0
  6
Continuous
 62
     7
370
    15
100
AcDbPolyline
 90
        9
 70
   128
 43
0.0
 10
198.1399900305
 20
244.4077142176
 10
198.2825047362
 20
244.3846565333
 10
198.4195432651
 20
244.3163696338
 10
198.5458380568
 20
244.2054775205
 10
198.6565387833
 20
244.0562423912
 10
198.7473911631
 20
243.8743983989
 10
198.8148934233
 20
243.6669341882
 10
198.8564676631
 20
243.441822346
 10
198.8705045569
 20
243.2077139278
  0
LINE
  5
122
330
1F
100
AcDbEntity
  8
0
  6
Continuous
 62
     7
370
    15
100
AcDbLine
 10
198.8705045569
 20
243.2077139278
 30
0.0
 11
197.9184768188
 21
243.2077139278
 31
0.0
  0
LINE
  5
123
330
1F
100
AcDbEntity
  8
0
  6
Continuous
 62
     7
370
    15
100
AcDbLine
 10
198.8705045569
 20
243.2077139278
 30
0.0
 11
198.8705045569
 21
232.6077142392
 31
0.0
  0
LINE
  5
124
330
1F
100
AcDbEntity
  8
0
  6
Continuous
 62
     7
370
    15
100
AcDbLine
 10
197.9184768188
 20
232.6077142392
 30
0.0
 11
198.8705045569
 21
232.6077142392
 31
0.0
  0
LINE
  5
125
330
1F
100
AcDbEntity
  8
0
  6
Continuous
 62
     7
370
    15
100
AcDbLine
 10
198.1399900305
 20
231.4077139494
 30
0.0
 11
197.1879622924
 21
231.4077139494
 31
0.0
  0
LWPOLYLINE
  5
126
330
1F
100
AcDbEntity
  8
0
  6
Continuous
 62
     7
370
    15
100
AcDbPolyline
 90
        9
 70
   128
 43
0.0
 10
198.8705045569
 20
232.6077142392
 10
198.8564676631
 20
232.373605821
 10
198.8148934233
 20
232.1484939788
 10
198.7473911631
 20
231.9410297682
 10
198.6565387833
 20
231.7591857758
 10
198.5458380568
 20
231.6099506465
 10
198.4195432651
 20
231.4990585332
 10
198.2825047362
 20
231.4307716337
 10
198.1399900305
 20
231.4077139494
  0
LINE
  5
127
330
1F
100
AcDbEntity
  8
0
  6
Continuous
 62
     7
370
    15
100
AcDbLine
 10
193.8903725731
 20
244.4077142176
 30
0.0
 11
194.4689846623
 21
244.4077142176
 31
0.0
  0
LINE
  5
128
330
1F
100
AcDbEntity
  8
0
  6
Continuous
 62
     7
370
    15
100
AcDbLine
 10
194.4689846623
 20
231.4077139494
 30
0.0
 11
193.8903725731
 21
231.4077139494
 31
0.0
  0
CIRCLE
  5
129
330
1F
100
AcDbEntity
  8
0
  6
Continuous
 62
     7
370
    15
100
AcDbCircle
 10
204.3903750885
 20
232.9077140835
 30
0.0
 40
3.0
  0
LINE
  5
12A
330
1F
100
AcDbEntity
  8
0
  6
Continuous
 62
     7
370
    15
100
AcDbLine
 10
203.9903721798
 20
231.0077141632
 30
0.0
 11
204.7903782714
 21
231.0077141632
 31
0.0
  0
LINE
  5
12B
330
1F
100
AcDbEntity
  8
0
  6
Continuous
 62
     7
370
    15
100
AcDbLine
 10
204.7903782714
 20
231.0077141632
 30
0.0
 11
204.7903782714
 21
232.5077139434
 31
0.0
  0
LINE
  5
12C
330
1F
100
AcDbEntity
  8
0
  6
Continuous
 62
     7
370
    15
100
AcDbLine
 10
204.7903782714
 20
232.5077139434
 30
0.0
 11
206.2903738606
 21
232.5077139434
 31
0.0
  0
LINE
  5
12D
330
1F
100
AcDbEntity
  8
0
  6
Continuous
 62
     7
370
    15
100
AcDbLine
 10
206.2903738606
 20
232.5077139434
 30
0.0
 11
206.2903738606
 21
233.3077139814
 31
0.0
  0
LINE
  5
12E
330
1F
100
AcDbEntity
  8
0
  6
Continuous
 62
     7
370
    15
100
AcDbLine
 10
206.2903738606
 20
233.3077139814
 30
0.0
 11
204.7903782714
 21
233.3077139814
 31
0.0
  0
LINE
  5
12F
330
1F
100
AcDbEntity
  8
0
  6
Continuous
 62
     7
370
    15
100
AcDbLine
 10
204.7903782714
 20
233.3077139814
 30
0.0
 11
204.7903782714
 21
234.8077139945
 31
0.0
  0
LINE
  5
130
330
1F
100
AcDbEntity
  8
0
  6
Continuous
 62
     7
370
    15
100
AcDbLine
 10
204.7903782714
 20
234.8077139945
 30
0.0
 11
203.9903721798
 21
234.8077139945
 31
0.0
  0
LINE
  5
131
330
1F
100
AcDbEntity
  8
0
  6
Continuous
 62
     7
370
    15
100
AcDbLine
 10
203.9903721798
 20
234.8077139945
 30
0.0
 11
203.9903721798
 21
233.3077139814
 31
0.0
  0
LINE
  5
132
330
1F
100
AcDbEntity
  8
0
  6
Continuous
 62
     7
370
    15
100
AcDbLine
 10
202.4903765905
 20
232.5077139434
 30
0.0
 11
203.9903721798
 21
232.5077139434
 31
0.0
  0
LINE
  5
133
330
1F
100
AcDbEntity
  8
0
  6
Continuous
 62
     7
370
    15
100
AcDbLine
 10
203.9903721798
 20
232.5077139434
 30
0.0
 11
203.9903721798
 21
231.0077141632
 31
0.0
  0
LINE
  5
134
330
1F
100
AcDbEntity
  8
0
  6
Continuous
 62
     7
370
    15
100
AcDbLine
 10
203.9903721798
 20
233.3077139814
 30
0.0
 11
202.4903765905
 21
233.3077139814
 31
0.0
  0
LINE
  5
135
330
1F
100
AcDbEntity
  8
0
  6
Continuous
 62
     7
370
    15
100
AcDbLine
 10
202.4903765905
 20
233.3077139814
 30
0.0
 11
202.4903765905
 21
232.5077139434
 31
0.0
  0
LINE
  5
136
330
1F
100
AcDbEntity
  8
0
  6
Continuous
 62
     7
370
    15
100
AcDbLine
 10
203.9903721798
 20
243.3077142236
 30
0.0
 11
202.4903765905
 21
243.3077142236
 31
0.0
  0
LINE
  5
137
330
1F
100
AcDbEntity
  8
0
  6
Continuous
 62
     7
370
    15
100
AcDbLine
 10
202.4903765905
 20
243.3077142236
 30
0.0
 11
202.4903765905
 21
242.5077141856
 31
0.0
  0
LINE
  5
138
330
1F
100
AcDbEntity
  8
0
  6
Continuous
 62
     7
370
    15
100
AcDbLine
 10
204.7903782714
 20
241.0077141725
 30
0.0
 11
204.7903782714
 21
242.5077141856
 31
0.0
  0
LINE
  5
139
330
1F
100
AcDbEntity
  8
0
  6
Continuous
 62
     7
370
    15
100
AcDbLine
 10
204.7903782714
 20
242.5077141856
 30
0.0
 11
206.2903738606
 21
242.5077141856
 31
0.0
  0
LINE
  5
13A
330
1F
100
AcDbEntity
  8
0
  6
Continuous
 62
     7
370
    15
100
AcDbLine
 10
206.2903738606
 20
242.5077141856
 30
0.0
 11
206.2903738606
 21
243.3077142236
 31
0.0
  0
LINE
  5
13B
330
1F
100
AcDbEntity
  8
0
  6
Continuous
 62
     7
370
    15
100
AcDbLine
 10
206.2903738606
 20
243.3077142236
 30
0.0
 11
204.7903782714
 21
243.3077142236
 31
0.0
  0
LINE
  5
13C
330
1F
100
AcDbEntity
  8
0
  6
Continuous
 62
     7
370
    15
100
AcDbLine
 10
204.7903782714
 20
243.3077142236
 30
0.0
 11
204.7903782714
 21
244.8077140038
 31
0.0
  0
LINE
  5
13D
330
1F
100
AcDbEntity
  8
0
  6
Continuous
 62
     7
370
    15
100
AcDbLine
 10
204.7903782714
 20
244.8077140038
 30
0.0
 11
203.9903721798
 21
244.8077140038
 31
0.0
  0
LINE
  5
13E
330
1F
100
AcDbEntity
  8
0
  6
Continuous
 62
     7
370
    15
100
AcDbLine
 10
203.9903721798
 20
244.8077140038
 30
0.0
 11
203.9903721798
 21
243.3077142236
 31
0.0
  0
CIRCLE
  5
13F
330
1F
100
AcDbEntity
  8
0
  6
Continuous
 62
     7
370
    15
100
AcDbCircle
 10
204.3903750885
 20
242.9077140835
 30
0.0
 40
3.0
  0
LINE
  5
140
330
1F
100
AcDbEntity
  8
0
  6
Continuous
 62
     7
370
    15
100
AcDbLine
 10
203.9903721798
 20
241.0077141725
 30
0.0
 11
204.7903782714
 21
241.0077141725
 31
0.0
  0
LINE
  5
141
330
1F
100
AcDbEntity
  8
0
  6
Continuous
 62
     7
370
    15
100
AcDbLine
 10
203.9903721798
 20
242.5077141856
 30
0.0
 11
203.9903721798
 21
241.0077141725
 31
0.0
  0
LINE
  5
142
330
1F
100
AcDbEntity
  8
0
  6
Continuous
 62
     7
370
    15
100
AcDbLine
 10
202.4903765905
 20
242.5077141856
 30
0.0
 11
203.9903721798
 21
242.5077141856
 31
0.0
  0
ARC
  5
143
330
1F
100
AcDbEntity
  8
0
  6
Continuous
 62
     7
370
    15
100
AcDbCircle
 10
193.8903750885
 20
237.9077140835
 30
0.0
 40
16.0
100
AcDbArc
 50
316.3971810272
 51
43.6028189726
  0
ARC
  5
144
330
1F
100
AcDbEntity
  8
0
  6
Continuous
 62
     7
370
    15
100
AcDbCircle
 10
204.3903750885
 20
247.9077140835
 30
0.0
 40
1.500000000000015
100
AcDbArc
 50
43.6028189726
 51
132.7273953127
  0
LINE
  5
145
330
1F
100
AcDbEntity
  8
0
  6
Continuous
 62
     7
370
    15
100
AcDbLine
 10
203.3726072896
 20
226.8058283848
 30
0.0
 11
198.3903742421
 21
231.4077139494
 31
0.0
  0
ARC
  5
146
330
1F
100
AcDbEntity
  8
0
  6
Continuous
 62
     7
370
    15
100
AcDbCircle
 10
204.3903750884
 20
227.9077140835
 30
0.0
 40
1.49999999999999
100
AcDbArc
 50
227.2726046868
 51
316.3971810272
  0
LINE
  5
147
330
1F
100
AcDbEntity
  8
0
  6
Continuous
 62
     7
370
    15
100
AcDbLine
 10
198.3903742421
 20
244.4077142176
 30
0.0
 11
203.3726072896
 21
249.0095997822
 31
0.0
  0
LINE
  5
148
330
1F
100
AcDbEntity
  8
0
  6
Continuous
 62
     7
370
    15
100
AcDbLine
 10
198.1893650282
 20
244.4077142176
 30
0.0
 11
198.3903742421
 21
244.4077142176
 31
0.0
  0
LINE
  5
149
330
1F
100
AcDbEntity
  8
0
  6
Continuous
 62
     7
370
    15
100
AcDbLine
 10
198.3903742421
 20
231.4077139494
 30
0.0
 11
198.1893650282
 21
231.4077139494
 31
0.0
  0
LINE
  5
14A
330
1F
100
AcDbEntity
  8
0
  6
Continuous
 62
     7
370
    15
100
AcDbLine
 10
201.3903728712
 20
422.9077164677
 30
0.0
 11
206.3903755534
 21
422.9077164677
 31
0.0
  0
LINE
  5
14B
330
1F
100
AcDbEntity
  8
0
  6
Continuous
 62
     7
370
    15
100
AcDbLine
 10
201.3903728712
 20
437.9077170637
 30
0.0
 11
206.3903755534
 21
437.9077170637
 31
0.0
  0
LINE
  5
14C
330
1F
100
AcDbEntity
  8
0
  6
Continuous
 62
     7
370
    15
100
AcDbLine
 10
206.3903755534
 20
422.9077164677
 30
0.0
 11
206.3903755534
 21
437.9077170637
 31
0.0
  0
LINE
  5
14D
330
1F
100
AcDbEntity
  8
0
  6
Continuous
 62
     7
370
    15
100
AcDbLine
 10
201.3903728712
 20
422.9077164677
 30
0.0
 11
201.3903728712
 21
437.9077170637
 31
0.0
  0
LINE
  5
14E
330
1F
100
AcDbEntity
  8
0
  6
Continuous
 62
     7
370
    15
100
AcDbLine
 10
206.3903755534
 20
247.8952061978
 30
0.0
 11
206.3903755534
 21
422.9077164677
 31
0.0
  0
LINE
  5
14F
330
1F
100
AcDbEntity
  8
0
  6
Continuous
 62
     7
370
    15
100
AcDbLine
 10
201.3903728712
 20
247.1786913124
 30
0.0
 11
201.3903728712
 21
422.9077164677
 31
0.0
  0
LINE
  5
150
330
1F
100
AcDbEntity
  8
0
  6
Continuous
 62
     7
370
    15
100
AcDbLine
 10
206.3903755534
 20
422.9077164677
 30
0.0
 11
221.3903761494
 21
422.9077164677
 31
0.0
  0
ARC
  5
151
330
1F
100
AcDbEntity
  8
0
  6
Continuous
 62
     7
370
    15
100
AcDbCircle
 10
206.3903750885
 20
422.9077140835
 30
0.0
 40
15.00000000000003
100
AcDbArc
 50
0.0
 51
90.0
  0
LINE
  5
152
330
1F
100
AcDbEntity
  8
0
  6
Continuous
 62
     7
370
    15
100
AcDbLine
 10
206.3903755534
 20
227.9202219692
 30
0.0
 11
206.3903755534
 21
52.9077116993
 31
0.0
  0
LINE
  5
153
330
1F
100
AcDbEntity
  8
0
  6
Continuous
 62
     7
370
    15
100
AcDbLine
 10
221.3903761494
 20
422.9077164677
 30
0.0
 11
221.3903761494
 21
52.9077116993
 31
0.0
  0
LINE
  5
154
330
1F
100
AcDbEntity
  8
0
  6
Continuous
 62
     7
370
    15
100
AcDbLine
 10
206.3903755534
 20
52.9077116993
 30
0.0
 11
221.3903761494
 21
52.9077116993
 31
0.0
  0
LINE
  5
155
330
1F
100
AcDbEntity
  8
0
  6
Continuous
 62
     7
370
    15
100
AcDbLine
 10
201.3903728712
 20
52.9077116993
 30
0.0
 11
206.3903755534
 21
52.9077116993
 31
0.0
  0
LINE
  5
156
330
1F
100
AcDbEntity
  8
0
  6
Continuous
 62
     7
370
    15
100
AcDbLine
 10
201.3903728712
 20
228.6367368546
 30
0.0
 11
201.3903728712
 21
52.9077116993
 31
0.0
  0
LINE
  5
157
330
1F
100
AcDbEntity
  8
0
  6
Continuous
 62
     7
370
    15
100
AcDbLine
 10
201.3903728712
 20
37.9077111033
 30
0.0
 11
206.3903755534
 21
37.9077111033
 31
0.0
  0
LINE
  5
158
330
1F
100
AcDbEntity
  8
0
  6
Continuous
 62
     7
370
    15
100
AcDbLine
 10
206.3903755534
 20
52.9077116993
 30
0.0
 11
206.3903755534
 21
37.9077111033
 31
0.0
  0
LINE
  5
159
330
1F
100
AcDbEntity
  8
0
  6
Continuous
 62
     7
370
    15
100
AcDbLine
 10
201.3903728712
 20
52.9077116993
 30
0.0
 11
201.3903728712
 21
37.9077111033
 31
0.0
  0
ARC
  5
15A
330
1F
100
AcDbEntity
  8
0
  6
Continuous
 62
     7
370
    15
100
AcDbCircle
 10
206.3903750885
 20
52.9077140835
 30
0.0
 40
15.00000000000001
100
AcDbArc
 50
270.0
 51
0.0
  0
LINE
  5
15B
330
1F
100
AcDbEntity
  8
0
  6
Continuous
 62
     7
370
    15
100
AcDbLine
 10
184.6013016093
 20
233.2077141513
 30
0.0
 11
184.6013016093
 21
241.8077139777
 31
0.0
  0
LINE
  5
15C
330
1F
100
AcDbEntity
  8
0
  6
Continuous
 62
     7
370
    15
100
AcDbLine
 10
179.0870077002
 20
233.2077141513
 30
0.0
 11
179.0870077002
 21
241.8077139777
 31
0.0
  0
LINE
  5
15D
330
1F
100
AcDbEntity
  8
0
  6
Continuous
 62
     7
370
    15
100
AcDbLine
 10
184.6013016093
 20
241.8077139777
 30
0.0
 11
179.0870077002
 21
241.8077139777
 31
0.0
  0
LINE
  5
15E
330
1F
100
AcDbEntity
  8
0
  6
Continuous
 62
     7
370
    15
100
AcDbLine
 10
184.6013016093
 20
233.2077141513
 30
0.0
 11
179.0870077002
 21
233.2077141513
 31
0.0
  0
LINE
  5
15F
330
1F
100
AcDbEntity
  8
0
  6
Continuous
 62
     7
370
    15
100
AcDbLine
 10
177.9727510202
 20
245.1077139598
 30
0.0
 11
153.1606412518
 21
245.1077139598
 31
0.0
  0
LINE
  5
160
330
1F
100
AcDbEntity
  8
0
  6
Continuous
 62
     7
370
    15
100
AcDbLine
 10
177.9727510202
 20
241.8077139777
 30
0.0
 11
177.9727510202
 21
245.1077139598
 31
0.0
  0
LINE
  5
161
330
1F
100
AcDbEntity
  8
0
  6
Continuous
 62
     7
370
    15
100
AcDbLine
 10
177.9727510202
 20
230.7077142072
 30
0.0
 11
177.9727510202
 21
233.2077141513
 31
0.0
  0
LINE
  5
162
330
1F
100
AcDbEntity
  8
0
  6
Continuous
 62
     7
370
    15
100
AcDbLine
 10
153.1606412518
 20
230.7077142072
 30
0.0
 11
177.9727510202
 21
230.7077142072
 31
0.0
  0
LINE
  5
163
330
1F
100
AcDbEntity
  8
0
  6
Continuous
 62
     7
370
    15
100
AcDbLine
 10
153.1606412518
 20
230.7077142072
 30
0.0
 11
153.1606412518
 21
245.1077139598
 31
0.0
  0
LINE
  5
164
330
1F
100
AcDbEntity
  8
0
  6
Continuous
 62
     7
370
    15
100
AcDbLine
 10
177.9727510202
 20
241.8077139777
 30
0.0
 11
179.0870077002
 21
241.8077139777
 31
0.0
  0
LINE
  5
165
330
1F
100
AcDbEntity
  8
0
  6
Continuous
 62
     7
370
    15
100
AcDbLine
 10
177.9727510202
 20
233.2077141513
 30
0.0
 11
179.0870077002
 21
233.2077141513
 31
0.0
  0
LINE
  5
166
330
1F
100
AcDbEntity
  8
0
  6
Continuous
 62
     7
370
    15
100
AcDbLine
 10
179.99260342
 20
245.9050648508
 30
0.0
 11
178.1003720152
 21
245.9050648508
 31
0.0
  0
ARC
  5
167
330
1F
100
AcDbEntity
  8
0
  6
Continuous
 62
     7
370
    15
100
AcDbCircle
 10
179.4471410867
 20
245.2806173265
 30
0.0
 40
1.484493732680827
100
AcDbArc
 50
155.1245711858
 51
186.6885899343
  0
ARC
  5
168
330
1F
100
AcDbEntity
  8
0
  6
Continuous
 62
     7
370
    15
100
AcDbCircle
 10
154.4165854832
 20
245.3016816331
 30
0.0
 40
1.270834123965128
100
AcDbArc
 50
151.5183032493
 51
188.7793817042
  0
LINE
  5
169
330
1F
100
AcDbEntity
  8
0
  6
Continuous
 62
     7
370
    15
100
AcDbLine
 10
153.2995610523
 20
245.9077144635
 30
0.0
 11
180.6653610456
 21
245.9077144635
 31
0.0
  0
LINE
  5
16A
330
1F
100
AcDbEntity
  8
0
  6
Continuous
 62
     7
370
    15
100
AcDbLine
 10
180.6653610456
 20
245.9077144635
 30
0.0
 11
179.99260342
 21
245.9050648508
 31
0.0
  0
LINE
  5
16B
330
1F
100
AcDbEntity
  8
0
  6
Continuous
 62
     7
370
    15
100
AcDbLine
 10
178.1003720152
 20
229.9103633163
 30
0.0
 11
179.99260342
 21
229.9103633163
 31
0.0
  0
LINE
  5
16C
330
1F
100
AcDbEntity
  8
0
  6
Continuous
 62
     7
370
    15
100
AcDbLine
 10
179.99260342
 20
229.9103633163
 30
0.0
 11
180.6653610456
 21
229.9077137035
 31
0.0
  0
LINE
  5
16D
330
1F
100
AcDbEntity
  8
0
  6
Continuous
 62
     7
370
    15
100
AcDbLine
 10
180.6653610456
 20
229.9077137035
 30
0.0
 11
153.2995610523
 21
229.9077137035
 31
0.0
  0
ARC
  5
16E
330
1F
100
AcDbEntity
  8
0
  6
Continuous
 62
     7
370
    15
100
AcDbCircle
 10
154.4165854832
 20
230.5137465339
 30
0.0
 40
1.270834123965126
100
AcDbArc
 50
171.2206182958
 51
208.4816967507
  0
ARC
  5
16F
330
1F
100
AcDbEntity
  8
0
  6
Continuous
 62
     7
370
    15
100
AcDbCircle
 10
179.4471410867
 20
230.5348108405
 30
0.0
 40
1.484493732680815
100
AcDbArc
 50
173.3114100657
 51
204.8754288142
  0
LINE
  5
170
330
1F
100
AcDbEntity
  8
0
  6
Continuous
 62
     7
370
    15
100
AcDbLine
 10
178.1003720152
 20
245.1077139598
 30
0.0
 11
178.1003720152
 21
245.9050648508
 31
0.0
  0
LINE
  5
171
330
1F
100
AcDbEntity
  8
0
  6
Continuous
 62
     7
370
    15
100
AcDbLine
 10
178.111674546
 20
245.1077139598
 30
0.0
 11
178.111674546
 21
241.8077139777
 31
0.0
  0
LINE
  5
172
330
1F
100
AcDbEntity
  8
0
  6
Continuous
 62
     7
370
    15
100
AcDbLine
 10
178.1003720152
 20
229.9103633163
 30
0.0
 11
178.1003720152
 21
230.7077142072
 31
0.0
  0
LINE
  5
173
330
1F
100
AcDbEntity
  8
0
  6
Continuous
 62
     7
370
    15
100
AcDbLine
 10
178.111674546
 20
233.2077141513
 30
0.0
 11
178.111674546
 21
230.7077142072
 31
0.0
  0
LINE
  5
174
330
1F
100
AcDbEntity
  8
0
  6
Continuous
 62
     7
370
    15
100
AcDbLine
 10
179.99260342
 20
245.1077139598
 30
0.0
 11
179.99260342
 21
245.9050648508
 31
0.0
  0
LINE
  5
175
330
1F
100
AcDbEntity
  8
0
  6
Continuous
 62
     7
370
    15
100
AcDbLine
 10
184.100376724
 20
245.9077144635
 30
0.0
 11
180.6653610456
 21
245.9077144635
 31
0.0
  0
LINE
  5
176
330
1F
100
AcDbEntity
  8
0
  6
Continuous
 62
     7
370
    15
100
AcDbLine
 10
184.100376724
 20
245.1077139598
 30
0.0
 11
179.99260342
 21
245.1077139598
 31
0.0
  0
LINE
  5
177
330
1F
100
AcDbEntity
  8
0
  6
Continuous
 62
     7
370
    15
100
AcDbLine
 10
184.100376724
 20
229.9077137035
 30
0.0
 11
180.6653610456
 21
229.9077137035
 31
0.0
  0
LINE
  5
178
330
1F
100
AcDbEntity
  8
0
  6
Continuous
 62
     7
370
    15
100
AcDbLine
 10
179.99260342
 20
229.9103633163
 30
0.0
 11
179.99260342
 21
230.7077142072
 31
0.0
  0
LINE
  5
179
330
1F
100
AcDbEntity
  8
0
  6
Continuous
 62
     7
370
    15
100
AcDbLine
 10
184.100376724
 20
230.7077142072
 30
0.0
 11
179.99260342
 21
230.7077142072
 31
0.0
  0
LINE
  5
17A
330
1F
100
AcDbEntity
  8
0
  6
Continuous
 62
     7
370
    15
100
AcDbLine
 10
178.1003720152
 20
230.7077142072
 30
0.0
 11
179.99260342
 21
230.7077142072
 31
0.0
  0
LINE
  5
17B
330
1F
100
AcDbEntity
  8
0
  6
Continuous
 62
     7
370
    15
100
AcDbLine
 10
178.1003720152
 20
245.1077139598
 30
0.0
 11
179.99260342
 21
245.1077139598
 31
0.0
  0
LINE
  5
17C
330
1F
100
AcDbEntity
  8
0
  6
Continuous
 62
     7
370
    15
100
AcDbLine
 10
179.1703722465
 20
246.2077139539
 30
0.0
 11
183.5703722227
 21
246.2077139539
 31
0.0
  0
LINE
  5
17D
330
1F
100
AcDbEntity
  8
0
  6
Continuous
 62
     7
370
    15
100
AcDbLine
 10
179.2703739393
 20
229.1077141312
 30
0.0
 11
183.4703779805
 21
229.1077141312
 31
0.0
  0
LINE
  5
17E
330
1F
100
AcDbEntity
  8
0
  6
Continuous
 62
     7
370
    15
100
AcDbLine
 10
179.2703739393
 20
229.507714383
 30
0.0
 11
183.4703779805
 21
229.507714383
 31
0.0
  0
ARC
  5
17F
330
1F
100
AcDbEntity
  8
0
  6
Continuous
 62
     7
370
    15
100
AcDbCircle
 10
161.5663193277
 20
237.9077140835
 30
0.0
 40
16.9040399539924
100
AcDbArc
 50
154.7902236235
 51
205.2097763765
  0
SPLINE
  5
180
330
1F
100
AcDbEntity
  8
0
  6
Continuous
 62
     7
370
    15
100
AcDbSpline
210
0.0
220
0.0
230
1.0
 70
     8
 71
     3
 72
    12
 73
     8
 74
     0
 42
0.00000001
 43
0.00000001
 40
0.0
 40
0.0
 40
0.0
 40
0.0
 40
0.1818718117469106
 40
0.3633430903355291
 40
0.5550787262324879
 40
0.7712653591745121
 40
1.0
 40
1.0
 40
1.0
 40
1.0
 10
146.4046931851018
 20
229.9077137035307
 30
0.0
 10
146.4285539957079
 20
229.9150354002312
 30
0.0
 10
146.4762230686681
 20
229.9296626691856
 30
0.0
 10
146.490960415256
 20
230.041651946752
 30
0.0
 10
146.4637350078449
 20
230.2110484171957
 30
0.0
 10
146.3920585214101
 20
230.4394616045644
 30
0.0
 10
146.3129729802121
 20
230.6166311165752
 30
0.0
 10
146.2723149943459
 20
230.70771420719
 30
0.0
  0
LINE
  5
181
330
1F
100
AcDbEntity
  8
0
  6
Continuous
 62
     7
370
    15
100
AcDbLine
 10
146.020328908
 20
230.6622130458
 30
0.0
 11
146.3747753787
 21
229.9077137035
 31
0.0
  0
ARC
  5
182
330
1F
100
AcDbEntity
  8
0
  6
Continuous
 62
     7
370
    15
100
AcDbCircle
 10
161.2910358491
 20
237.9077140835
 30
0.0
 40
16.90241922828409
100
AcDbArc
 50
154.6170368419
 51
205.3829631581
  0
LINE
  5
183
330
1F
100
AcDbEntity
  8
0
  6
Continuous
 62
     7
370
    15
100
AcDbLine
 10
146.3747753787
 20
245.9077144635
 30
0.0
 11
146.020328908
 21
245.1532151212
 31
0.0
  0
SPLINE
  5
184
330
1F
100
AcDbEntity
  8
0
  6
Continuous
 62
     7
370
    15
100
AcDbSpline
210
0.0
220
0.0
230
1.0
 70
     8
 71
     3
 72
    12
 73
     8
 74
     0
 42
0.00000001
 43
0.00000001
 40
0.0
 40
0.0
 40
0.0
 40
0.0
 40
0.2510217007323472
 40
0.5023984111293668
 40
0.7402769038154375
 40
0.9473073416423178
 40
1.0
 40
1.0
 40
1.0
 40
1.0
 10
146.2723149943459
 20
245.1077139598307
 30
0.0
 10
146.3166317971883
 20
245.2075961821108
 30
0.0
 10
146.405328078304
 20
245.4075018859891
 30
0.0
 10
146.4803346277149
 20
245.6662357417585
 30
0.0
 10
146.4918196625648
 20
245.8434660285658
 30
0.0
 10
146.4501754637314
 20
245.9039151527209
 30
0.0
 10
146.4123643160685
 20
245.9070736642299
 30
0.0
 10
146.4046931851018
 20
245.90771446349
 30
0.0
  0
LINE
  5
185
330
1F
100
AcDbEntity
  8
0
  6
Continuous
 62
     7
370
    15
100
AcDbLine
 10
146.4046931851
 20
245.9077144635
 30
0.0
 11
146.3747753787
 21
245.9077144635
 31
0.0
  0
LINE
  5
186
330
1F
100
AcDbEntity
  8
0
  6
Continuous
 62
     7
370
    15
100
AcDbLine
 10
146.4046931851
 20
229.9077137035
 30
0.0
 11
146.3747753787
 21
229.9077137035
 31
0.0
  0
LINE
  5
187
330
1F
100
AcDbEntity
  8
0
  6
Continuous
 62
     7
370
    15
100
AcDbLine
 10
148.2617951024
 20
245.1077139598
 30
0.0
 11
146.2723149943
 21
245.1077139598
 31
0.0
  0
LINE
  5
188
330
1F
100
AcDbEntity
  8
0
  6
Continuous
 62
     7
370
    15
100
AcDbLine
 10
148.2617951024
 20
230.7077142072
 30
0.0
 11
148.2617951024
 21
245.1077139598
 31
0.0
  0
LINE
  5
189
330
1F
100
AcDbEntity
  8
0
  6
Continuous
 62
     7
370
    15
100
AcDbLine
 10
146.2723149943
 20
230.7077142072
 30
0.0
 11
148.2617951024
 21
230.7077142072
 31
0.0
  0
LWPOLYLINE
  5
18A
330
1F
100
AcDbEntity
  8
0
  6
Continuous
 62
     7
370
    15
100
AcDbPolyline
 90
        9
 70
   128
 43
0.0
 10
148.2617951024
 20
245.1077139598
 10
148.2565349925
 20
245.2637863939
 10
148.2409670043
 20
245.4138606449
 10
148.2156797338
 20
245.5521704291
 10
148.1816529322
 20
245.6733992917
 10
148.1401904512
 20
245.7728896883
 10
148.0928867149
 20
245.8468180743
 10
148.0415559399
 20
245.8923420531
 10
147.9881762552
 20
245.9077144635
  0
LINE
  5
18B
330
1F
100
AcDbEntity
  8
0
  6
Continuous
 62
     7
370
    15
100
AcDbLine
 10
146.4046931851
 20
245.9077144635
 30
0.0
 11
147.9881762552
 21
245.9077144635
 31
0.0
  0
LWPOLYLINE
  5
18C
330
1F
100
AcDbEntity
  8
0
  6
Continuous
 62
     7
370
    15
100
AcDbPolyline
 90
        9
 70
   128
 43
0.0
 10
148.2617951024
 20
230.7077142072
 10
148.2565349925
 20
230.5516417732
 10
148.2409670043
 20
230.4015675222
 10
148.2156797338
 20
230.2632577379
 10
148.1816529322
 20
230.1420288754
 10
148.1401904512
 20
230.0425384787
 10
148.0928867149
 20
229.9686100927
 10
148.0415559399
 20
229.9230861139
 10
147.9881762552
 20
229.9077137035
  0
LINE
  5
18D
330
1F
100
AcDbEntity
  8
0
  6
Continuous
 62
     7
370
    15
100
AcDbLine
 10
147.9881762552
 20
229.9077137035
 30
0.0
 11
146.4046931851
 21
229.9077137035
 31
0.0
  0
LINE
  5
18E
330
1F
100
AcDbEntity
  8
0
  6
Continuous
 62
     7
370
    15
100
AcDbLine
 10
148.2617951024
 20
230.7077142072
 30
0.0
 11
153.1606412518
 21
230.7077142072
 31
0.0
  0
LINE
  5
18F
330
1F
100
AcDbEntity
  8
0
  6
Continuous
 62
     7
370
    15
100
AcDbLine
 10
153.2995610523
 20
229.9077137035
 30
0.0
 11
147.9881762552
 21
229.9077137035
 31
0.0
  0
LINE
  5
190
330
1F
100
AcDbEntity
  8
0
  6
Continuous
 62
     7
370
    15
100
AcDbLine
 10
153.1606412518
 20
245.1077139598
 30
0.0
 11
148.2617951024
 21
245.1077139598
 31
0.0
  0
LINE
  5
191
330
1F
100
AcDbEntity
  8
0
  6
Continuous
 62
     7
370
    15
100
AcDbLine
 10
147.9881762552
 20
245.9077144635
 30
0.0
 11
153.2995610523
 21
245.9077144635
 31
0.0
  0
SPLINE
  5
192
330
1F
100
AcDbEntity
  8
0
  6
Continuous
 62
     7
370
    15
100
AcDbSpline
210
0.0
220
0.0
230
1.0
 70
     8
 71
     3
 72
    16
 73
    12
 74
     0
 42
0.00000001
 43
0.00000001
 40
0.0
 40
0.0
 40
0.0
 40
0.0
 40
0.1207046053305122
 40
0.2414117485228161
 40
0.3621187928579281
 40
0.4828244150315569
 40
0.6035308798966444
 40
0.7242368975539513
 40
0.8449447291159179
 40
0.965651490604193
 40
1.0
 40
1.0
 40
1.0
 40
1.0
 10
179.5426703083623
 20
224.9553425830779
 30
0.0
 10
179.5620744811438
 20
224.9580152965236
 30
0.0
 10
179.600883234687
 20
224.96336077961
 30
0.0
 10
179.6058019151029
 20
225.2543063467818
 30
0.0
 10
179.5685931013831
 20
225.7076430293417
 30
0.0
 10
179.4916756554013
 20
226.275176155565
 30
0.0
 10
179.3878629466948
 20
226.8634944366922
 30
0.0
 10
179.2717520955528
 20
227.3902023928837
 30
0.0
 10
179.1647585100385
 20
227.7534781593096
 30
0.0
 10
179.0921826998996
 20
227.9239500260771
 30
0.0
 10
179.0726305651754
 20
227.8907982164911
 30
0.0
 10
179.0682992923367
 20
227.8834542852816
 30
0.0
  0
SPLINE
  5
193
330
1F
100
AcDbEntity
  8
0
  6
Continuous
 62
     7
370
    15
100
AcDbSpline
210
0.0
220
0.0
230
1.0
 70
     8
 71
     3
 72
    16
 73
    12
 74
     0
 42
0.00000001
 43
0.00000001
 40
0.0
 40
0.0
 40
0.0
 40
0.0
 40
0.1205802243391841
 40
0.2411628773538966
 40
0.3617456841750914
 40
0.4823269243095784
 40
0.602909006267166
 40
0.7234903463182457
 40
0.8440737935643892
 40
0.9646532105588711
 40
1.0
 40
1.0
 40
1.0
 40
1.0
 10
179.7132588017095
 20
250.8313663897094
 30
0.0
 10
179.7326638137206
 20
250.8286935779981
 30
0.0
 10
179.7714742285905
 20
250.823347900741
 30
0.0
 10
179.776380344321
 20
250.5324039009122
 30
0.0
 10
179.7391745817581
 20
250.0790651741416
 30
0.0
 10
179.6622576964556
 20
249.5115357449847
 30
0.0
 10
179.5584396744172
 20
248.9232043033499
 30
0.0
 10
179.4423499335158
 20
248.3965473376067
 30
0.0
 10
179.3353217240661
 20
248.0330788765014
 30
0.0
 10
179.2625670099859
 20
247.8625285329605
 30
0.0
 10
179.2429174466834
 20
247.8961127556318
 30
0.0
 10
179.2384631025899
 20
247.9037259367284
 30
0.0
  0
SPLINE
  5
194
330
1F
100
AcDbEntity
  8
0
  6
Continuous
 62
     7
370
    15
100
AcDbSpline
210
0.0
220
0.0
230
1.0
 70
     8
 71
     3
 72
    16
 73
    12
 74
     0
 42
0.00000001
 43
0.00000001
 40
0.0
 40
0.0
 40
0.0
 40
0.0
 40
0.1205149410390626
 40
0.2410324159521506
 40
0.3615497921633819
 40
0.4820659444862974
 40
0.602582742138031
 40
0.723098798284932
 40
0.8436169604860408
 40
0.964131122291637
 40
1.0
 40
1.0
 40
1.0
 40
1.0
 10
195.0836426603902
 20
227.5717611086544
 30
0.0
 10
195.1030468842486
 20
227.5744338559683
 30
0.0
 10
195.1418557399469
 20
227.5797794067916
 30
0.0
 10
195.1467736541877
 20
227.8707244659284
 30
0.0
 10
195.1095677317591
 20
228.3240633248277
 30
0.0
 10
195.0326393321759
 20
228.8915896376197
 30
0.0
 10
194.9288234038399
 20
229.4799290006837
 30
0.0
 10
194.8127365884656
 20
230.0065587348291
 30
0.0
 10
194.7056945186607
 20
230.3701285481714
 30
0.0
 10
194.6328375095911
 20
230.540723358602
 30
0.0
 10
194.6131471777108
 20
230.5069095514142
 30
0.0
 10
194.6086308944333
 20
230.4991538298306
 30
0.0
  0
SPLINE
  5
195
330
1F
100
AcDbEntity
  8
0
  6
Continuous
 62
     7
370
    15
100
AcDbSpline
210
0.0
220
0.0
230
1.0
 70
     8
 71
     3
 72
    16
 73
    12
 74
     0
 42
0.00000001
 43
0.00000001
 40
0.0
 40
0.0
 40
0.0
 40
0.0
 40
0.1205175952378241
 40
0.2410320013546159
 40
0.3615491173087173
 40
0.4820659362327606
 40
0.6025827147512922
 40
0.7230988056430306
 40
0.8436143848329625
 40
0.9641311907118021
 40
1.0
 40
1.0
 40
1.0
 40
1.0
 10
195.2542311537374
 20
248.2149478641328
 30
0.0
 10
195.2736321861215
 20
248.2122765701022
 30
0.0
 10
195.3124337375023
 20
248.2069340527285
 30
0.0
 10
195.3173559680709
 20
247.9159808630198
 30
0.0
 10
195.2801456841582
 20
247.4626445318965
 30
0.0
 10
195.2032302980562
 20
246.8951214263377
 30
0.0
 10
195.0994135351391
 20
246.3067788538877
 30
0.0
 10
194.983316980279
 20
245.7801569669613
 30
0.0
 10
194.8762731663029
 20
245.4165718508547
 30
0.0
 10
194.8034191332814
 20
245.2459852938458
 30
0.0
 10
194.7837282613474
 20
245.2797998563286
 30
0.0
 10
194.7792119371999
 20
245.287555608618
 30
0.0
  0
SPLINE
  5
196
330
1F
100
AcDbEntity
  8
0
  6
Continuous
 62
     7
370
    15
100
AcDbSpline
210
0.0
220
0.0
230
1.0
 70
    24
 71
     3
 72
    16
 73
    12
 74
     0
 42
0.00000001
 43
0.00000001
 40
0.0
 40
0.0
 40
0.0
 40
0.0
 40
0.0611070830567523
 40
0.1864721287805676
 40
0.3118330571648433
 40
0.4371952872640836
 40
0.5625581702422341
 40
0.6879217385907687
 40
0.8132849238669656
 40
0.938647153966206
 40
0.9999999999999999
 40
0.9999999999999999
 40
0.9999999999999999
 40
0.9999999999999999
 10
198.160561083566
 20
231.0414783318517
 30
0.0
 10
198.1663340761079
 20
231.0414783318517
 30
0.0
 10
198.1839507279734
 20
231.0414783318517
 30
0.0
 10
197.9655264764006
 20
231.0414783318517
 30
0.0
 10
197.5527672686276
 20
231.0414783318517
 30
0.0
 10
196.9963096856209
 20
231.0414783318517
 30
0.0
 10
196.3972028731209
 20
231.0414783318517
 30
0.0
 10
195.8384971434822
 20
231.0414783318517
 30
0.0
 10
195.4215562197271
 20
231.0414783318517
 30
0.0
 10
195.1985536526608
 20
231.0414783318517
 30
0.0
 10
195.2133691602065
 20
231.0414783318517
 30
0.0
 10
195.2182373988736
 20
231.0414783318517
 30
0.0
  0
SPLINE
  5
197
330
1F
100
AcDbEntity
  8
0
  6
Continuous
 62
     7
370
    15
100
AcDbSpline
210
0.0
220
0.0
230
1.0
 70
    24
 71
     3
 72
    16
 73
    12
 74
     0
 42
0.00000001
 43
0.00000001
 40
0.0
 40
0.0
 40
0.0
 40
0.0
 40
0.061009523075421
 40
0.18617441832717
 40
0.3113352028128819
 40
0.4364972869353167
 40
0.5616600228943136
 40
0.6868234431294724
 40
0.8119864809038844
 40
0.9371485650263193
 40
1.0
 40
1.0
 40
1.0
 40
1.0
 10
198.160561083566
 20
244.6001091633913
 30
0.0
 10
198.1663340698406
 20
244.6001091633913
 30
0.0
 10
198.1839507025812
 20
244.6001091633913
 30
0.0
 10
197.9655267118134
 20
244.6001091633913
 30
0.0
 10
197.5527664061379
 20
244.6001091633913
 30
0.0
 10
196.9963129002221
 20
244.6001091633913
 30
0.0
 10
196.3971908771248
 20
244.6001091633913
 30
0.0
 10
195.8385419130463
 20
244.6001091633913
 30
0.0
 10
195.4213891386611
 20
244.6001091633913
 30
0.0
 10
195.1979033313618
 20
244.6001091633913
 30
0.0
 10
195.2131150039336
 20
244.6001091633913
 30
0.0
 10
195.2182001459706
 20
244.6001091633913
 30
0.0
  0
SPLINE
  5
198
330
1F
100
AcDbEntity
  8
0
  6
Continuous
 62
     7
370
    15
100
AcDbSpline
210
0.0
220
0.0
230
1.0
 70
     8
 71
     3
 72
    19
 73
    15
 74
     0
 42
0.00000001
 43
0.00000001
 40
0.0
 40
0.0
 40
0.0
 40
0.0
 40
0.0039549680764079
 40
0.1157674400594964
 40
0.2280426972644299
 40
0.3355192133522786
 40
0.4377075149536659
 40
0.5348816862754312
 40
0.6283029051159624
 40
0.7302896280521846
 40
0.8413272539360634
 40
0.9641211673495057
 40
0.9937658995430381
 40
1.0
 40
1.0
 40
1.0
 40
1.0
 10
184.488648830663
 20
243.5077138838348
 30
0.0
 10
184.4890436190917
 20
243.5077082710079
 30
0.0
 10
184.5005996278584
 20
243.5075439757242
 30
0.0
 10
184.5238306168244
 20
243.4924136055485
 30
0.0
 10
184.5673181674061
 20
243.4255164822219
 30
0.0
 10
184.6053077636151
 20
243.3208208890047
 30
0.0
 10
184.6287990983892
 20
243.1957441860475
 30
0.0
 10
184.6401291805226
 20
243.0673077232993
 30
0.0
 10
184.6407225604652
 20
242.9461384283125
 30
0.0
 10
184.6249518295874
 20
242.836903740664
 30
0.0
 10
184.5845692347255
 20
242.7474884191949
 30
0.0
 10
184.5327084955211
 20
242.7124373935149
 30
0.0
 10
184.4980017325458
 20
242.7078271869542
 30
0.0
 10
184.490033368039
 20
242.7077310207815
 30
0.0
 10
184.488648830663
 20
242.7077143114981
 30
0.0
  0
SPLINE
  5
199
330
1F
100
AcDbEntity
  8
0
  6
Continuous
 62
     7
370
    15
100
AcDbSpline
210
0.0
220
0.0
230
1.0
 70
     8
 71
     3
 72
    30
 73
    26
 74
     0
 42
0.00000001
 43
0.00000001
 40
0.0
 40
0.0
 40
0.0
 40
0.0
 40
0.1247103694179049
 40
0.2494212538629267
 40
0.3741287605657861
 40
0.4367861067026452
 40
0.4681568693316649
 40
0.4838436015184199
 40
0.4916902619189387
 40
0.4956145732461674
 40
0.4975735455192779
 40
0.4985530859222146
 40
0.4990429068530641
 40
0.4992877305448237
 40
0.4994101857775361
 40
0.4994713701407683
 40
0.4995019623223844
 40
0.499520204312353
 40
0.4995326778067564
 40
0.5609189835222846
 40
0.6646208517203359
 40
0.7325800547444816
 40
0.8111467124947432
 40
0.9002980821952381
 40
1.0
 40
1.0
 40
1.0
 40
1.0
 10
184.5603457677472
 20
243.5676058416244
 30
0.0
 10
184.5661137221265
 20
243.5658130203653
 30
0.0
 10
184.5776496547057
 20
243.562227370443
 30
0.0
 10
184.6674851677905
 20
243.5403874073472
 30
0.0
 10
184.774968724528
 20
243.5147065360713
 30
0.0
 10
184.860522692319
 20
243.4942950356326
 30
0.0
 10
184.904619850226
 20
243.4837612844145
 30
0.0
 10
184.9268482368986
 20
243.4784417015373
 30
0.0
 10
184.9379813121196
 20
243.4757762162495
 30
0.0
 10
184.943551419073
 20
243.4744437439921
 30
0.0
 10
184.9463354789109
 20
243.4737748818184
 30
0.0
 10
184.9477264434906
 20
243.4734425163284
 30
0.0
 10
184.9484214998128
 20
243.473274078551
 30
0.0
 10
184.9487694959626
 20
243.4731918345544
 30
0.0
 10
184.9489430927971
 20
243.473149195215
 30
0.0
 10
184.9490302435831
 20
243.4731293389651
 30
0.0
 10
184.9490746459703
 20
243.4731176769288
 30
0.0
 10
184.9490999649814
 20
243.4731135616544
 30
0.0
 10
184.9734146062075
 20
243.4649193778818
 30
0.0
 10
185.041904231393
 20
243.4541943810592
 30
0.0
 10
185.1322193378865
 20
243.4326618566126
 30
0.0
 10
185.2158687774352
 20
243.4157951055965
 30
0.0
 10
185.2793968952238
 20
243.4028360159304
 30
0.0
 10
185.329910207358
 20
243.3932122908035
 30
0.0
 10
185.3371407530321
 20
243.3927473097195
 30
0.0
 10
185.3409579980481
 20
243.3925018307743
 30
0.0
  0
ELLIPSE
  5
19A
330
1F
100
AcDbEntity
  8
0
  6
Continuous
 62
     7
370
    15
100
AcDbEllipse
 10
185.2174834822
 20
244.6896892623
 30
0.0
 11
0.3906095144045878
 21
-0.08616383961160068
 31
0.0
210
0.0
220
0.0
230
1.0
 40
0.0142285888
 41
0.0
 42
6.283185307179586
  0
LINE
  5
19B
330
1F
100
AcDbEntity
  8
0
  6
Continuous
 62
     7
370
    15
100
AcDbLine
 10
184.3903756726
 20
244.6577142586
 30
0.0
 11
178.1903750289
 21
244.6577142586
 31
0.0
  0
LINE
  5
19C
330
1F
100
AcDbEntity
  8
0
  6
Continuous
 62
     7
370
    15
100
AcDbLine
 10
184.3903756726
 20
244.6577142586
 30
0.0
 11
184.3903756726
 21
243.6577140947
 31
0.0
  0
LINE
  5
19D
330
1F
100
AcDbEntity
  8
0
  6
Continuous
 62
     7
370
    15
100
AcDbLine
 10
184.3903756726
 20
243.6577140947
 30
0.0
 11
178.1903750289
 21
243.6577140947
 31
0.0
  0
LINE
  5
19E
330
1F
100
AcDbEntity
  8
0
  6
Continuous
 62
     7
370
    15
100
AcDbLine
 10
178.1903750289
 20
244.6577142586
 30
0.0
 11
178.1903750289
 21
243.6577140947
 31
0.0
  0
LINE
  5
19F
330
1F
100
AcDbEntity
  8
0
  6
Continuous
 62
     7
370
    15
100
AcDbLine
 10
184.3903756726
 20
232.1577140723
 30
0.0
 11
184.3903756726
 21
231.1577139084
 31
0.0
  0
LINE
  5
1A0
330
1F
100
AcDbEntity
  8
0
  6
Continuous
 62
     7
370
    15
100
AcDbLine
 10
184.3903756726
 20
231.1577139084
 30
0.0
 11
178.1903750289
 21
231.1577139084
 31
0.0
  0
LINE
  5
1A1
330
1F
100
AcDbEntity
  8
0
  6
Continuous
 62
     7
370
    15
100
AcDbLine
 10
178.1903750289
 20
232.1577140723
 30
0.0
 11
178.1903750289
 21
231.1577139084
 31
0.0
  0
LINE
  5
1A2
330
1F
100
AcDbEntity
  8
0
  6
Continuous
 62
     7
370
    15
100
AcDbLine
 10
184.3903756726
 20
232.1577140723
 30
0.0
 11
178.1903750289
 21
232.1577140723
 31
0.0
  0
LWPOLYLINE
  5
1A3
330
1F
100
AcDbEntity
  8
0
  6
Continuous
 62
     7
370
    15
100
AcDbPolyline
 90
        3
 70
   128
 43
0.0
 10
178.111674546
 20
231.5465755423
 10
178.1142524469
 20
231.540397614
 10
178.1903750289
 20
231.1577139084
  0
LWPOLYLINE
  5
1A4
330
1F
100
AcDbEntity
  8
0
  6
Continuous
 62
     7
370
    15
100
AcDbPolyline
 90
        3
 70
   128
 43
0.0
 10
178.1903750289
 20
244.6577142586
 10
178.1142524469
 20
244.2750305531
 10
178.111674546
 20
244.2688526248
  0
LINE
  5
1A5
330
1F
100
AcDbEntity
  8
0
  6
Continuous
 62
     7
370
    15
100
AcDbLine
 10
184.3903756726
 20
243.6577140947
 30
0.0
 11
184.3903756726
 21
243.5077138838
 31
0.0
  0
LINE
  5
1A6
330
1F
100
AcDbEntity
  8
0
  6
Continuous
 62
     7
370
    15
100
AcDbLine
 10
184.3903756726
 20
242.7077143115
 30
0.0
 11
184.3903756726
 21
241.8077139777
 31
0.0
  0
LINE
  5
1A7
330
1F
100
AcDbEntity
  8
0
  6
Continuous
 62
     7
370
    15
100
AcDbLine
 10
184.3903756726
 20
233.2077141513
 30
0.0
 11
184.3903756726
 21
232.1577140723
 31
0.0
  0
ARC
  5
1A8
330
1F
100
AcDbEntity
  8
0
  6
Continuous
 62
     7
370
    15
100
AcDbCircle
 10
116.3903750885
 20
422.9077140835
 30
0.0
 40
15.0
100
AcDbArc
 50
90.0
 51
180.0
  0
LINE
  5
1A9
330
1F
100
AcDbEntity
  8
0
  6
Continuous
 62
     7
370
    15
100
AcDbLine
 10
116.3903747711
 20
437.9077170637
 30
0.0
 11
116.3903747711
 21
422.9077164677
 31
0.0
  0
LINE
  5
1AA
330
1F
100
AcDbEntity
  8
0
  6
Continuous
 62
     7
370
    15
100
AcDbLine
 10
101.3903751063
 20
422.9077164677
 30
0.0
 11
116.3903747711
 21
422.9077164677
 31
0.0
  0
LINE
  5
1AB
330
1F
100
AcDbEntity
  8
0
  6
Continuous
 62
     7
370
    15
100
AcDbLine
 10
116.3903747711
 20
422.9077164677
 30
0.0
 11
116.3903747711
 21
52.9077116993
 31
0.0
  0
LINE
  5
1AC
330
1F
100
AcDbEntity
  8
0
  6
Continuous
 62
     7
370
    15
100
AcDbLine
 10
116.3903747711
 20
52.9077116993
 30
0.0
 11
101.3903751063
 21
52.9077116993
 31
0.0
  0
LINE
  5
1AD
330
1F
100
AcDbEntity
  8
0
  6
Continuous
 62
     7
370
    15
100
AcDbLine
 10
101.3903751063
 20
422.9077164677
 30
0.0
 11
101.3903751063
 21
52.9077116993
 31
0.0
  0
LINE
  5
1AE
330
1F
100
AcDbEntity
  8
0
  6
Continuous
 62
     7
370
    15
100
AcDbLine
 10
116.3903747711
 20
52.9077116993
 30
0.0
 11
116.3903747711
 21
37.9077111033
 31
0.0
  0
ARC
  5
1AF
330
1F
100
AcDbEntity
  8
0
  6
Continuous
 62
     7
370
    15
100
AcDbCircle
 10
116.3903750885
 20
52.9077140835
 30
0.0
 40
15.00000000000001
100
AcDbArc
 50
180.0
 51
270.0
  0
LINE
  5
1B0
330
1F
100
AcDbEntity
  8
0
  6
Continuous
 62
     7
370
    15
100
AcDbLine
 10
197.3903722155
 20
52.9077116993
 30
0.0
 11
116.3903747711
 21
52.9077116993
 31
0.0
  0
LINE
  5
1B1
330
1F
100
AcDbEntity
  8
0
  6
Continuous
 62
     7
370
    15
100
AcDbLine
 10
197.3903722155
 20
52.9077116993
 30
0.0
 11
197.3903722155
 21
37.9077111033
 31
0.0
  0
LINE
  5
1B2
330
1F
100
AcDbEntity
  8
0
  6
Continuous
 62
     7
370
    15
100
AcDbLine
 10
197.3903722155
 20
37.9077111033
 30
0.0
 11
116.3903747711
 21
37.9077111033
 31
0.0
  0
LINE
  5
1B3
330
1F
100
AcDbEntity
  8
0
  6
Continuous
 62
     7
370
    15
100
AcDbLine
 10
177.3903763878
 20
57.907706931
 30
0.0
 11
177.3903763878
 21
225.0951676291
 31
0.0
  0
LINE
  5
1B4
330
1F
100
AcDbEntity
  8
0
  6
Continuous
 62
     7
370
    15
100
AcDbLine
 10
177.3903763878
 20
228.4349537116
 30
0.0
 11
177.3903763878
 21
229.9077137035
 31
0.0
  0
LINE
  5
1B5
330
1F
100
AcDbEntity
  8
0
  6
Continuous
 62
     7
370
    15
100
AcDbLine
 10
177.3903763878
 20
245.9077144635
 30
0.0
 11
177.3903763878
 21
247.3671164957
 31
0.0
  0
LINE
  5
1B6
330
1F
100
AcDbEntity
  8
0
  6
Continuous
 62
     7
370
    15
100
AcDbLine
 10
177.3903763878
 20
250.709832519
 30
0.0
 11
177.3903763878
 21
417.9077212361
 31
0.0
  0
LINE
  5
1B7
330
1F
100
AcDbEntity
  8
0
  6
Continuous
 62
     7
370
    15
100
AcDbLine
 10
177.3903763878
 20
417.9077212361
 30
0.0
 11
121.3903746593
 21
417.9077212361
 31
0.0
  0
LINE
  5
1B8
330
1F
100
AcDbEntity
  8
0
  6
Continuous
 62
     7
370
    15
100
AcDbLine
 10
121.3903746593
 20
417.9077212361
 30
0.0
 11
121.3903746593
 21
57.907706931
 31
0.0
  0
LINE
  5
1B9
330
1F
100
AcDbEntity
  8
0
  6
Continuous
 62
     7
370
    15
100
AcDbLine
 10
177.3903763878
 20
57.907706931
 30
0.0
 11
121.3903746593
 21
57.907706931
 31
0.0
  0
LINE
  5
1BA
330
1F
100
AcDbEntity
  8
0
  6
Continuous
 62
     7
370
    15
100
AcDbLine
 10
197.3903722155
 20
422.9077164677
 30
0.0
 11
116.3903747711
 21
422.9077164677
 31
0.0
  0
LINE
  5
1BB
330
1F
100
AcDbEntity
  8
0
  6
Continuous
 62
     7
370
    15
100
AcDbLine
 10
197.3903722155
 20
52.9077116993
 30
0.0
 11
197.3903722155
 21
228.899806611
 31
0.0
  0
LINE
  5
1BC
330
1F
100
AcDbEntity
  8
0
  6
Continuous
 62
     7
370
    15
100
AcDbLine
 10
197.3903722155
 20
246.8836436641
 30
0.0
 11
197.3903722155
 21
422.9077164677
 31
0.0
  0
LINE
  5
1BD
330
1F
100
AcDbEntity
  8
0
  6
Continuous
 62
     7
370
    15
100
AcDbLine
 10
197.3903722155
 20
437.9077170637
 30
0.0
 11
116.3903747711
 21
437.9077170637
 31
0.0
  0
LINE
  5
1BE
330
1F
100
AcDbEntity
  8
0
  6
Continuous
 62
     7
370
    15
100
AcDbLine
 10
197.3903722155
 20
437.9077170637
 30
0.0
 11
197.3903722155
 21
422.9077164677
 31
0.0
  0
LINE
  5
1BF
330
1F
100
AcDbEntity
  8
0
  6
Continuous
 62
     7
370
    15
100
AcDbLine
 10
201.3903728712
 20
417.9077212361
 30
0.0
 11
197.3903722155
 21
417.9077212361
 31
0.0
  0
LINE
  5
1C0
330
1F
100
AcDbEntity
  8
0
  6
Continuous
 62
     7
370
    15
100
AcDbLine
 10
201.3903728712
 20
57.907706931
 30
0.0
 11
197.3903722155
 21
57.907706931
 31
0.0
  0
LINE
  5
1C1
330
1F
100
AcDbEntity
  8
0
  6
Continuous
 62
     7
370
    15
100
AcDbLine
 10
201.3903728712
 20
432.907706931
 30
0.0
 11
197.3903722155
 21
432.907706931
 31
0.0
  0
LINE
  5
1C2
330
1F
100
AcDbEntity
  8
0
  6
Continuous
 62
     7
370
    15
100
AcDbLine
 10
201.3903728712
 20
42.9077212361
 30
0.0
 11
197.3903722155
 21
42.9077212361
 31
0.0
  0
LINE
  5
1C3
330
1F
100
AcDbEntity
  8
0
  6
Continuous
 62
     7
370
    15
100
AcDbLine
 10
382.352588692
 20
548.0088463188
 30
0.0
 11
383.5525792029
 21
548.0088463188
 31
0.0
  0
LINE
  5
1C4
330
1F
100
AcDbEntity
  8
0
  6
Continuous
 62
     7
370
    15
100
AcDbLine
 10
382.2525869992
 20
550.5088439346
 30
0.0
 11
382.352588692
 21
550.5088439346
 31
0.0
  0
LINE
  5
1C5
330
1F
100
AcDbEntity
  8
0
  6
Continuous
 62
     7
370
    15
100
AcDbLine
 10
382.352588692
 20
556.5088486433
 30
0.0
 11
382.2525869992
 21
556.5088486433
 31
0.0
  0
LINE
  5
1C6
330
1F
100
AcDbEntity
  8
0
  6
Continuous
 62
     7
370
    15
100
AcDbLine
 10
378.1043421414
 20
613.5088449478
 30
0.0
 11
377.3525785592
 21
613.235229826
 31
0.0
  0
SPLINE
  5
1C7
330
1F
100
AcDbEntity
  8
0
  6
Continuous
 62
     7
370
    15
100
AcDbSpline
210
0.0
220
0.0
230
1.0
 70
     8
 71
     3
 72
    15
 73
    11
 74
     0
 42
0.00000001
 43
0.00000001
 40
0.0
 40
0.0
 40
0.0
 40
0.0
 40
0.1250744274509279
 40
0.2501503509278477
 40
0.3752913966326744
 40
0.5003035110630263
 40
0.6252877252304982
 40
0.7502617812752356
 40
0.8750784389565823
 40
1.0
 40
1.0
 40
1.0
 40
1.0
 10
381.167022505101
 20
578.5666799307207
 30
0.0
 10
381.1408976349785
 20
578.8254415153962
 30
0.0
 10
381.0886475822517
 20
579.3429677798167
 30
0.0
 10
381.0097786346241
 20
580.1240803309504
 30
0.0
 10
380.9353530904434
 20
580.8612622851364
 30
0.0
 10
380.868338064955
 20
581.5248372819226
 30
0.0
 10
380.8122312818101
 20
582.0806009390234
 30
0.0
 10
380.7697131941292
 20
582.5016976913694
 30
0.0
 10
380.7408808285154
 20
582.7873049675106
 30
0.0
 10
380.7365390773192
 20
582.8303399367635
 30
0.0
 10
380.7343672898377
 20
582.8518664598803
 30
0.0
  0
SPLINE
  5
1C8
330
1F
100
AcDbEntity
  8
0
  6
Continuous
 62
     7
370
    15
100
AcDbSpline
210
0.0
220
0.0
230
1.0
 70
     8
 71
     3
 72
    15
 73
    11
 74
     0
 42
0.00000001
 43
0.00000001
 40
0.0
 40
0.0
 40
0.0
 40
0.0
 40
0.1249396391705264
 40
0.2497688640687143
 40
0.3747511162151848
 40
0.4997376379703598
 40
0.6247470391646603
 40
0.749879351211111
 40
0.8749423377432772
 40
1.0
 40
1.0
 40
1.0
 40
1.0
 10
377.7501117375458
 20
582.5504830241541
 30
0.0
 10
377.7522941859408
 20
582.5289048480639
 30
0.0
 10
377.756657154012
 20
582.485767565401
 30
0.0
 10
377.785506747523
 20
582.2000576083043
 30
0.0
 10
377.8280116386517
 20
581.7788729294256
 30
0.0
 10
377.8841513182932
 20
581.2230984579286
 30
0.0
 10
377.9511363009102
 20
580.559575735649
 30
0.0
 10
378.0255577387949
 20
579.822527829937
 30
0.0
 10
378.1043854685979
 20
579.0416147508589
 30
0.0
 10
378.1566302280064
 20
578.5242592910926
 30
0.0
 10
378.182752051648
 20
578.2655870676379
 30
0.0
  0
LINE
  5
1C9
330
1F
100
AcDbEntity
  8
0
  6
Continuous
 62
     7
370
    15
100
AcDbLine
 10
378.1824689296
 20
578.2654529572
 30
0.0
 11
379.7515463021
 21
562.7244806052
 31
0.0
  0
LINE
  5
1CA
330
1F
100
AcDbEntity
  8
0
  6
Continuous
 62
     7
370
    15
100
AcDbLine
 10
382.7363680986
 20
563.0258416891
 30
0.0
 11
381.167290726
 21
578.5668140412
 31
0.0
  0
SPLINE
  5
1CB
330
1F
100
AcDbEntity
  8
0
  6
Continuous
 62
     7
370
    15
100
AcDbSpline
210
0.0
220
0.0
230
1.0
 70
     8
 71
     3
 72
     9
 73
     5
 74
     0
 42
0.00000001
 43
0.00000001
 40
0.0
 40
0.0
 40
0.0
 40
0.0
 40
0.4837383992592056
 40
0.9999999999999999
 40
0.9999999999999999
 40
0.9999999999999999
 40
0.9999999999999999
 10
379.9216281560028
 20
561.0431080818514
 30
0.0
 10
379.9310887334379
 20
560.9788766017285
 30
0.0
 10
379.9506459516567
 20
560.8460951640317
 30
0.0
 10
379.9844886370595
 20
560.8099475390118
 30
0.0
 10
380.0019603159989
 20
560.791285908256
 30
0.0
  0
SPLINE
  5
1CC
330
1F
100
AcDbEntity
  8
0
  6
Continuous
 62
     7
370
    15
100
AcDbSpline
210
0.0
220
0.0
230
1.0
 70
     8
 71
     3
 72
    11
 73
     7
 74
     0
 42
0.00000001
 43
0.00000001
 40
0.0
 40
0.0
 40
0.0
 40
0.0
 40
0.2484399281662082
 40
0.4978861587261837
 40
0.7483870213466268
 40
0.9999999999999999
 40
0.9999999999999999
 40
0.9999999999999999
 40
0.9999999999999999
 10
379.7518145230378
 20
562.7246370673518
 30
0.0
 10
379.7698271489884
 20
562.5461653600349
 30
0.0
 10
379.8059253607749
 20
562.1884990482903
 30
0.0
 10
379.8529512491357
 20
561.7236645546753
 30
0.0
 10
379.8917431206683
 20
561.3407823029582
 30
0.0
 10
379.9067876576786
 20
561.1934879792599
 30
0.0
 10
379.9143265870179
 20
561.119677698646
 30
0.0
  0
SPLINE
  5
1CD
330
1F
100
AcDbEntity
  8
0
  6
Continuous
 62
     7
370
    15
100
AcDbSpline
210
0.0
220
0.0
230
1.0
 70
     8
 71
     3
 72
    19
 73
    15
 74
     0
 42
0.00000001
 43
0.00000001
 40
0.0
 40
0.0
 40
0.0
 40
0.0
 40
0.0802818883672179
 40
0.1534418481045241
 40
0.219341559902187
 40
0.2779472031135257
 40
0.3728452086266658
 40
0.4421543358402099
 40
0.5315379160060053
 40
0.6554821942039389
 40
0.7303560681291662
 40
0.8130802651975478
 40
0.9031427689244644
 40
1.0
 40
1.0
 40
1.0
 40
1.0
 10
379.9372743752564
 20
560.9604662418703
 30
0.0
 10
379.9726340154442
 20
560.8375894164608
 30
0.0
 10
380.040216488267
 20
560.6027363560318
 30
0.0
 10
380.2374484768176
 20
560.308327905775
 30
0.0
 10
380.4622937279207
 20
560.0842028700883
 30
0.0
 10
380.7579577811352
 20
559.8911588243949
 30
0.0
 10
381.099907231921
 20
559.7732525640223
 30
0.0
 10
381.509664879812
 20
559.7434649533678
 30
0.0
 10
381.9487495576716
 20
559.8457558817023
 30
0.0
 10
382.335283443931
 20
560.0969927195541
 30
0.0
 10
382.6281142356478
 20
560.4377156203487
 30
0.0
 10
382.8089067960103
 20
560.7931734477113
 30
0.0
 10
382.9147975960035
 20
561.2201189308406
 30
0.0
 10
382.8825429533078
 20
561.5151828060469
 30
0.0
 10
382.8658293870056
 20
561.6680776834826
 30
0.0
  0
SPLINE
  5
1CE
330
1F
100
AcDbEntity
  8
0
  6
Continuous
 62
     7
370
    15
100
AcDbSpline
210
0.0
220
0.0
230
1.0
 70
     8
 71
     3
 72
    11
 73
     7
 74
     0
 42
0.00000001
 43
0.00000001
 40
0.0
 40
0.0
 40
0.0
 40
0.0
 40
0.2477434628142177
 40
0.4969475109707789
 40
0.7476765810656706
 40
1.0
 40
1.0
 40
1.0
 40
1.0
 10
382.8895967391098
 20
561.5004023671488
 30
0.0
 10
382.883163038198
 20
561.5650285426225
 30
0.0
 10
382.8702577061335
 20
561.6946619007759
 30
0.0
 10
382.8342678743525
 20
562.0525267210185
 30
0.0
 10
382.7893163475492
 20
562.4988550775311
 30
0.0
 10
382.7538761417431
 20
562.8497194078155
 30
0.0
 10
382.736099877652
 20
563.0257075786928
 30
0.0
  0
LINE
  5
1CF
330
1F
100
AcDbEntity
  8
0
  6
Continuous
 62
     7
370
    15
100
AcDbLine
 10
383.0198924926
 20
572.6805126429
 30
0.0
 11
383.0198775914
 21
572.9803314567
 31
0.0
  0
LINE
  5
1D0
330
1F
100
AcDbEntity
  8
0
  6
Continuous
 62
     7
370
    15
100
AcDbLine
 10
382.2198789504
 20
572.9803314567
 30
0.0
 11
382.2198789504
 21
572.6829638839
 31
0.0
  0
SPLINE
  5
1D1
330
1F
100
AcDbEntity
  8
0
  6
Continuous
 62
     7
370
    15
100
AcDbSpline
210
0.0
220
0.0
230
1.0
 70
    24
 71
     3
 72
    11
 73
     7
 74
     0
 42
0.00000001
 43
0.00000001
 40
0.0
 40
0.0
 40
0.0
 40
0.0
 40
0.0207833414794417
 40
0.3465559490330116
 40
0.6711464500042603
 40
0.9999999999999999
 40
0.9999999999999999
 40
0.9999999999999999
 40
0.9999999999999999
 10
382.2198789504135
 20
573.2666498184542
 30
0.0
 10
382.2198789504135
 20
573.2633281059584
 30
0.0
 10
382.2198789504138
 20
573.207939552221
 30
0.0
 10
382.2198789504135
 20
573.1147071644456
 30
0.0
 10
382.2198789504135
 20
573.0019921794092
 30
0.0
 10
382.2198789504135
 20
572.9674754227007
 30
0.0
 10
382.2198789504135
 20
572.9501044512133
 30
0.0
  0
SPLINE
  5
1D2
330
1F
100
AcDbEntity
  8
0
  6
Continuous
 62
     7
370
    15
100
AcDbSpline
210
0.0
220
0.0
230
1.0
 70
    24
 71
     3
 72
    11
 73
     7
 74
     0
 42
0.00000001
 43
0.00000001
 40
0.0
 40
0.0
 40
0.0
 40
0.0
 40
0.250483117174979
 40
0.4977293257689061
 40
0.7458640769072823
 40
1.0
 40
1.0
 40
1.0
 40
1.0
 10
383.0198924925888
 20
572.9476532101969
 30
0.0
 10
383.0198924925888
 20
572.9638670075274
 30
0.0
 10
383.0198924925888
 20
572.9960850767706
 30
0.0
 10
383.0198924925888
 20
573.1048693010094
 30
0.0
 10
383.0198924925888
 20
573.2437009075795
 30
0.0
 10
383.0198924925888
 20
573.3507276744567
 30
0.0
 10
383.0198924925888
 20
573.4048804402689
 30
0.0
  0
LINE
  5
1D3
330
1F
100
AcDbEntity
  8
0
  6
Continuous
 62
     7
370
    15
100
AcDbLine
 10
382.01314024
 20
573.5088458419
 30
0.0
 11
382.2220545199
 21
573.2616206766
 31
0.0
  0
LINE
  5
1D4
330
1F
100
AcDbEntity
  8
0
  6
Continuous
 62
     7
370
    15
100
AcDbLine
 10
383.0198924926
 20
573.4048804403
 30
0.0
 11
383.0198924926
 21
573.5088458419
 31
0.0
  0
LINE
  5
1D5
330
1F
100
AcDbEntity
  8
0
  6
Continuous
 62
     7
370
    15
100
AcDbLine
 10
377.743495622
 20
582.6468711853
 30
0.0
 11
377.727879205
 21
583.106095171
 31
0.0
  0
SPLINE
  5
1D6
330
1F
100
AcDbEntity
  8
0
  6
Continuous
 62
     7
370
    15
100
AcDbSpline
210
0.0
220
0.0
230
1.0
 70
     8
 71
     3
 72
    11
 73
     7
 74
     0
 42
0.00000001
 43
0.00000001
 40
0.0
 40
0.0
 40
0.0
 40
0.0
 40
0.1207591879391755
 40
0.4133945270735894
 40
0.7063577672814166
 40
1.0
 40
1.0
 40
1.0
 40
1.0
 10
379.7761630204285
 20
562.4834319711069
 30
0.0
 10
379.7860862767668
 20
562.3851315599738
 30
0.0
 10
379.8200565272383
 20
562.0486200889628
 30
0.0
 10
379.8674141363515
 20
561.5797006548968
 30
0.0
 10
379.9103001024467
 20
561.1549745135152
 30
0.0
 10
379.9178492254617
 20
561.0804256556995
 30
0.0
 10
379.9216281560028
 20
561.0431080818514
 30
0.0
  0
LINE
  5
1D7
330
1F
100
AcDbEntity
  8
0
  6
Continuous
 62
     7
370
    15
100
AcDbLine
 10
383.5525792029
 20
612.5088466466
 30
0.0
 11
383.2525890258
 21
612.5088466466
 31
0.0
  0
LINE
  5
1D8
330
1F
100
AcDbEntity
  8
0
  6
Continuous
 62
     7
370
    15
100
AcDbLine
 10
383.2525890258
 20
611.50884462
 30
0.0
 11
383.152587333
 21
611.50884462
 31
0.0
  0
LINE
  5
1D9
330
1F
100
AcDbEntity
  8
0
  6
Continuous
 62
     7
370
    15
100
AcDbLine
 10
383.152587333
 20
605.5088473618
 30
0.0
 11
383.2525890258
 21
605.5088473618
 31
0.0
  0
LINE
  5
1DA
330
1F
100
AcDbEntity
  8
0
  6
Continuous
 62
     7
370
    15
100
AcDbLine
 10
383.2525890258
 20
588.508846438
 30
0.0
 11
383.152587333
 21
588.508846438
 31
0.0
  0
LINE
  5
1DB
330
1F
100
AcDbEntity
  8
0
  6
Continuous
 62
     7
370
    15
100
AcDbLine
 10
383.152587333
 20
582.5088491798
 30
0.0
 11
383.2525890258
 21
582.5088491798
 31
0.0
  0
LINE
  5
1DC
330
1F
100
AcDbEntity
  8
0
  6
Continuous
 62
     7
370
    15
100
AcDbLine
 10
398.552579799
 20
556.5088486433
 30
0.0
 11
398.552579799
 21
551.5088459611
 31
0.0
  0
LINE
  5
1DD
330
1F
100
AcDbEntity
  8
0
  6
Continuous
 62
     7
370
    15
100
AcDbLine
 10
398.552579799
 20
556.5088486433
 30
0.0
 11
768.5525845674
 21
556.5088486433
 31
0.0
  0
LINE
  5
1DE
330
1F
100
AcDbEntity
  8
0
  6
Continuous
 62
     7
370
    15
100
AcDbLine
 10
768.5525845674
 20
556.5088486433
 30
0.0
 11
768.5525845674
 21
551.5088459611
 31
0.0
  0
LINE
  5
1DF
330
1F
100
AcDbEntity
  8
0
  6
Continuous
 62
     7
370
    15
100
AcDbLine
 10
398.552579799
 20
551.5088459611
 30
0.0
 11
768.5525845674
 21
551.5088459611
 31
0.0
  0
LINE
  5
1E0
330
1F
100
AcDbEntity
  8
0
  6
Continuous
 62
     7
370
    15
100
AcDbLine
 10
783.5525851634
 20
556.5088486433
 30
0.0
 11
783.5525851634
 21
551.5088459611
 31
0.0
  0
LINE
  5
1E1
330
1F
100
AcDbEntity
  8
0
  6
Continuous
 62
     7
370
    15
100
AcDbLine
 10
783.5525851634
 20
551.5088459611
 30
0.0
 11
768.5525845674
 21
551.5088459611
 31
0.0
  0
LINE
  5
1E2
330
1F
100
AcDbEntity
  8
0
  6
Continuous
 62
     7
370
    15
100
AcDbLine
 10
783.5525851634
 20
556.5088486433
 30
0.0
 11
768.5525845674
 21
556.5088486433
 31
0.0
  0
ARC
  5
1E3
330
1F
100
AcDbEntity
  8
0
  6
Continuous
 62
     7
370
    15
100
AcDbCircle
 10
768.5525821832
 20
551.508846426
 30
0.0
 40
15.00000000000011
100
AcDbArc
 50
270.0
 51
0.0
  0
LINE
  5
1E4
330
1F
100
AcDbEntity
  8
0
  6
Continuous
 62
     7
370
    15
100
AcDbLine
 10
768.5525845674
 20
551.5088459611
 30
0.0
 11
768.5525845674
 21
536.5088453651
 31
0.0
  0
LINE
  5
1E5
330
1F
100
AcDbEntity
  8
0
  6
Continuous
 62
     7
370
    15
100
AcDbLine
 10
398.552579799
 20
536.5088453651
 30
0.0
 11
398.552579799
 21
551.5088459611
 31
0.0
  0
LINE
  5
1E6
330
1F
100
AcDbEntity
  8
0
  6
Continuous
 62
     7
370
    15
100
AcDbLine
 10
398.552579799
 20
536.5088453651
 30
0.0
 11
768.5525845674
 21
536.5088453651
 31
0.0
  0
LINE
  5
1E7
330
1F
100
AcDbEntity
  8
0
  6
Continuous
 62
     7
370
    15
100
AcDbLine
 10
383.5525792029
 20
556.5088486433
 30
0.0
 11
383.5525792029
 21
551.5088459611
 31
0.0
  0
LINE
  5
1E8
330
1F
100
AcDbEntity
  8
0
  6
Continuous
 62
     7
370
    15
100
AcDbLine
 10
383.5525792029
 20
551.5088459611
 30
0.0
 11
398.552579799
 21
551.5088459611
 31
0.0
  0
LINE
  5
1E9
330
1F
100
AcDbEntity
  8
0
  6
Continuous
 62
     7
370
    15
100
AcDbLine
 10
383.5525792029
 20
556.5088486433
 30
0.0
 11
398.552579799
 21
556.5088486433
 31
0.0
  0
ARC
  5
1EA
330
1F
100
AcDbEntity
  8
0
  6
Continuous
 62
     7
370
    15
100
AcDbCircle
 10
398.5525821832
 20
551.508846426
 30
0.0
 40
15.00000000000006
100
AcDbArc
 50
180.0
 51
270.0
  0
LINE
  5
1EB
330
1F
100
AcDbEntity
  8
0
  6
Continuous
 62
     7
370
    15
100
AcDbLine
 10
382.352588692
 20
554.5266142249
 30
0.0
 11
383.5525792029
 21
554.5266142249
 31
0.0
  0
LINE
  5
1EC
330
1F
100
AcDbEntity
  8
0
  6
Continuous
 62
     7
370
    15
100
AcDbLine
 10
382.352588692
 20
552.4226373196
 30
0.0
 11
383.5525792029
 21
552.4226373196
 31
0.0
  0
LINE
  5
1ED
330
1F
100
AcDbEntity
  8
0
  6
Continuous
 62
     7
370
    15
100
AcDbLine
 10
382.352588692
 20
552.4226373196
 30
0.0
 11
382.352588692
 21
554.5266142249
 31
0.0
  0
LINE
  5
1EE
330
1F
100
AcDbEntity
  8
0
  6
Continuous
 62
     7
370
    15
100
AcDbLine
 10
382.352588692
 20
559.5088472724
 30
0.0
 11
383.5525792029
 21
559.5088472724
 31
0.0
  0
LINE
  5
1EF
330
1F
100
AcDbEntity
  8
0
  6
Continuous
 62
     7
370
    15
100
AcDbLine
 10
383.5525792029
 20
556.5088486433
 30
0.0
 11
383.5525792029
 21
559.5088472724
 31
0.0
  0
LINE
  5
1F0
330
1F
100
AcDbEntity
  8
0
  6
Continuous
 62
     7
370
    15
100
AcDbLine
 10
382.352588692
 20
559.5088472724
 30
0.0
 11
382.352588692
 21
554.5266142249
 31
0.0
  0
LINE
  5
1F1
330
1F
100
AcDbEntity
  8
0
  6
Continuous
 62
     7
370
    15
100
AcDbLine
 10
383.5525792029
 20
551.5088459611
 30
0.0
 11
383.5525792029
 21
548.0088463188
 31
0.0
  0
LINE
  5
1F2
330
1F
100
AcDbEntity
  8
0
  6
Continuous
 62
     7
370
    15
100
AcDbLine
 10
382.352588692
 20
548.0088463188
 30
0.0
 11
382.352588692
 21
552.4226373196
 31
0.0
  0
LINE
  5
1F3
330
1F
100
AcDbEntity
  8
0
  6
Continuous
 62
     7
370
    15
100
AcDbLine
 10
382.2525869992
 20
550.5088439346
 30
0.0
 11
382.2525869992
 21
556.5088486433
 31
0.0
  0
ARC
  5
1F4
330
1F
100
AcDbEntity
  8
0
  6
Continuous
 62
     7
370
    15
100
AcDbCircle
 10
380.7525821832
 20
561.208846426
 30
0.0
 40
2.800000000000011
100
AcDbArc
 50
0.0
 51
45.4024529621
  0
LINE
  5
1F5
330
1F
100
AcDbEntity
  8
0
  6
Continuous
 62
     7
370
    15
100
AcDbLine
 10
379.6449284938
 20
563.7804439426
 30
0.0
 11
379.048047581
 21
563.4302368522
 31
0.0
  0
LINE
  5
1F6
330
1F
100
AcDbEntity
  8
0
  6
Continuous
 62
     7
370
    15
100
AcDbLine
 10
376.2351255801
 20
559.759231484
 30
0.0
 11
379.7785621074
 21
562.4782091141
 31
0.0
  0
LINE
  5
1F7
330
1F
100
AcDbEntity
  8
0
  6
Continuous
 62
     7
370
    15
100
AcDbLine
 10
375.5046110538
 20
560.7112592221
 30
0.0
 11
376.2351255801
 21
559.759231484
 31
0.0
  0
LINE
  5
1F8
330
1F
100
AcDbEntity
  8
0
  6
Continuous
 62
     7
370
    15
100
AcDbLine
 10
379.048047581
 20
563.4302368522
 30
0.0
 11
375.5046110538
 21
560.7112592221
 31
0.0
  0
LINE
  5
1F9
330
1F
100
AcDbEntity
  8
0
  6
Continuous
 62
     7
370
    15
100
AcDbLine
 10
383.5525792029
 20
559.5088472724
 30
0.0
 11
383.5525792029
 21
560.508849299
 31
0.0
  0
LINE
  5
1FA
330
1F
100
AcDbEntity
  8
0
  6
Continuous
 62
     7
370
    15
100
AcDbLine
 10
382.352588692
 20
560.1497834683
 30
0.0
 11
382.352588692
 21
559.5088472724
 31
0.0
  0
LINE
  5
1FB
330
1F
100
AcDbEntity
  8
0
  6
Continuous
 62
     7
370
    15
100
AcDbLine
 10
375.2830903915
 20
559.0287169576
 30
0.0
 11
374.5525758651
 21
559.9807446957
 31
0.0
  0
LWPOLYLINE
  5
1FC
330
1F
100
AcDbEntity
  8
0
  6
Continuous
 62
     7
370
    15
100
AcDbPolyline
 90
        9
 70
   128
 43
0.0
 10
374.5525758651
 20
559.9807446957
 10
374.570874491
 20
559.9947815895
 10
374.6250551131
 20
560.0363483787
 10
374.7130315688
 20
560.1038580895
 10
374.8314212945
 20
560.1947030187
 10
374.9756943372
 20
560.3054037452
 10
375.1402776626
 20
560.4316985369
 10
375.3188680795
 20
560.5687370658
 10
375.5046110538
 20
560.7112592221
  0
LWPOLYLINE
  5
1FD
330
1F
100
AcDbEntity
  8
0
  6
Continuous
 62
     7
370
    15
100
AcDbPolyline
 90
        9
 70
   128
 43
0.0
 10
376.2351255801
 20
559.759231484
 10
376.0493826058
 20
559.6167167783
 10
375.8707921889
 20
559.4796782494
 10
375.7062088636
 20
559.3533834577
 10
375.5619358209
 20
559.2426827312
 10
375.4435460952
 20
559.1518303514
 10
375.3555696395
 20
559.0843280912
 10
375.3013890174
 20
559.0427538514
 10
375.2830903915
 20
559.0287169576
  0
ARC
  5
1FE
330
1F
100
AcDbEntity
  8
0
  6
Continuous
 62
     7
370
    15
100
AcDbCircle
 10
378.6525821832
 20
576.528846426
 30
0.0
 40
2.200000000000133
100
AcDbArc
 50
103.5934783352
 51
268.1042765976
  0
LINE
  5
1FF
330
1F
100
AcDbEntity
  8
0
  6
Continuous
 62
     7
370
    15
100
AcDbLine
 10
375.1057516721
 20
577.9066180945
 30
0.0
 11
375.4394035724
 21
579.7988494993
 31
0.0
  0
LWPOLYLINE
  5
200
330
1F
100
AcDbEntity
  8
0
  6
Continuous
 62
     7
370
    15
100
AcDbPolyline
 90
        9
 70
   128
 43
0.0
 10
375.4394035724
 20
579.7988494993
 10
375.295160332
 20
579.8242783308
 10
375.1581292537
 20
579.8484405637
 10
375.0330191043
 20
579.8705017329
 10
374.9241661218
 20
579.8896944285
 10
374.8353402999
 20
579.9053555489
 10
374.7696112779
 20
579.9169486523
 10
374.7292440322
 20
579.9240714074
 10
374.7156243709
 20
579.9264704943
  0
LINE
  5
201
330
1F
100
AcDbEntity
  8
0
  6
Continuous
 62
     7
370
    15
100
AcDbLine
 10
374.7156243709
 20
579.9264704943
 30
0.0
 11
379.090664902
 21
604.7385802627
 31
0.0
  0
LWPOLYLINE
  5
202
330
1F
100
AcDbEntity
  8
0
  6
Continuous
 62
     7
370
    15
100
AcDbPolyline
 90
        9
 70
   128
 43
0.0
 10
379.090664902
 20
604.7385802627
 10
379.1058044818
 20
604.7359092296
 10
379.1506420758
 20
604.7280041635
 10
379.2234491494
 20
604.7151668132
 10
379.3214242843
 20
604.6978926421
 10
379.4408123878
 20
604.6768410266
 10
379.5770239022
 20
604.65282408
 10
379.724813619
 20
604.6267619491
 10
379.8785190967
 20
604.5996604622
  0
LINE
  5
203
330
1F
100
AcDbEntity
  8
0
  6
Continuous
 62
     7
370
    15
100
AcDbLine
 10
379.8785190967
 20
604.5996604622
 30
0.0
 11
375.0531803754
 21
577.2338604689
 31
0.0
  0
LINE
  5
204
330
1F
100
AcDbEntity
  8
0
  6
Continuous
 62
     7
370
    15
100
AcDbLine
 10
375.0531803754
 20
577.2338604689
 30
0.0
 11
375.1057516721
 21
577.9066180945
 31
0.0
  0
LWPOLYLINE
  5
205
330
1F
100
AcDbEntity
  8
0
  6
Continuous
 62
     7
370
    15
100
AcDbPolyline
 90
        5
 70
   128
 43
0.0
 10
377.9379706767
 20
611.6269065202
 10
377.6844870236
 20
612.3233122886
 10
377.5009345201
 20
612.8276234627
 10
377.3898016599
 20
613.1329817832
 10
377.3525785592
 20
613.235229826
  0
LWPOLYLINE
  5
206
330
1F
100
AcDbEntity
  8
0
  6
Continuous
 62
     7
370
    15
100
AcDbPolyline
 90
        5
 70
   128
 43
0.0
 10
378.6975871709
 20
611.8788926065
 10
378.4407507566
 20
612.5845631719
 10
378.2547097591
 20
613.0956804514
 10
378.1420569804
 20
613.4051961959
 10
378.1043421414
 20
613.5088449478
  0
LINE
  5
207
330
1F
100
AcDbEntity
  8
0
  6
Continuous
 62
     7
370
    15
100
AcDbLine
 10
378.9196889785
 20
611.5244461358
 30
0.0
 11
378.6975871709
 21
611.8788926065
 31
0.0
  0
LINE
  5
208
330
1F
100
AcDbEntity
  8
0
  6
Continuous
 62
     7
370
    15
100
AcDbLine
 10
378.8374941733
 20
611.4945283294
 30
0.0
 11
378.9196889785
 21
611.5244461358
 31
0.0
  0
SPLINE
  5
209
330
1F
100
AcDbEntity
  8
0
  6
Continuous
 62
     7
370
    15
100
AcDbSpline
210
0.0
220
0.0
230
1.0
 70
     8
 71
     3
 72
    12
 73
     8
 74
     0
 42
0.00000001
 43
0.00000001
 40
0.0
 40
0.0
 40
0.0
 40
0.0
 40
0.2510217007323472
 40
0.5023984111293668
 40
0.7402769038154375
 40
0.9473073416423178
 40
1.0
 40
1.0
 40
1.0
 40
1.0
 10
377.9379706767166
 20
611.626906520162
 30
0.0
 10
377.9656796466848
 20
611.5825897173197
 30
0.0
 10
378.0211367742776
 20
611.4938934362038
 30
0.0
 10
378.2281334292326
 20
611.4188868867932
 30
0.0
 10
378.4895225593295
 20
611.4074018519431
 30
0.0
 10
378.7061053614113
 20
611.4490460507766
 30
0.0
 10
378.8153338767572
 20
611.4868571984395
 30
0.0
 10
378.8374941733445
 20
611.4945283294062
 30
0.0
  0
LINE
  5
20A
330
1F
100
AcDbEntity
  8
0
  6
Continuous
 62
     7
370
    15
100
AcDbLine
 10
378.8374941733
 20
611.4945283294
 30
0.0
 11
379.4138263848
 21
609.9110452593
 31
0.0
  0
LWPOLYLINE
  5
20B
330
1F
100
AcDbEntity
  8
0
  6
Continuous
 62
     7
370
    15
100
AcDbPolyline
 90
        9
 70
   128
 43
0.0
 10
378.6620777038
 20
609.6374264121
 10
378.676516929
 20
609.642686522
 10
378.7192981628
 20
609.6582545102
 10
378.7887673762
 20
609.6835417807
 10
378.8822572616
 20
609.7175685823
 10
378.9961766389
 20
609.7590310634
 10
379.1261445668
 20
609.8063347996
 10
379.2671691564
 20
609.8576655746
 10
379.4138263848
 20
609.9110452593
  0
LINE
  5
20C
330
1F
100
AcDbEntity
  8
0
  6
Continuous
 62
     7
370
    15
100
AcDbLine
 10
378.6620777038
 20
609.6374264121
 30
0.0
 11
377.9379706767
 21
611.6269065202
 31
0.0
  0
ARC
  5
20D
330
1F
100
AcDbEntity
  8
0
  6
Continuous
 62
     7
370
    15
100
AcDbCircle
 10
379.2425876893
 20
582.6978373445
 30
0.0
 40
1.600000000000023
100
AcDbArc
 50
347.034367059
 51
204.5705045339
  0
ARC
  5
20E
330
1F
100
AcDbEntity
  8
0
  6
Continuous
 62
     7
370
    15
100
AcDbCircle
 10
379.7552966546
 20
610.7209112804
 30
0.0
 40
0.4999999999998863
100
AcDbArc
 50
36.8410865502
 51
90.0
  0
ARC
  5
20F
330
1F
100
AcDbEntity
  8
0
  6
Continuous
 62
     7
370
    15
100
AcDbCircle
 10
372.5525821832
 20
605.324532472
 30
0.0
 40
9.5
100
AcDbArc
 50
0.0
 51
36.8410865502
  0
LINE
  5
210
330
1F
100
AcDbEntity
  8
0
  6
Continuous
 62
     7
370
    15
100
AcDbLine
 10
382.0525836137
 20
605.3245311737
 30
0.0
 11
382.0525836137
 21
577.2988444329
 31
0.0
  0
ARC
  5
211
330
1F
100
AcDbEntity
  8
0
  6
Continuous
 62
     7
370
    15
100
AcDbCircle
 10
369.7349951427
 20
606.3882368943
 30
0.0
 40
10.30000000000016
100
AcDbArc
 50
350.0
 51
20.0
  0
ARC
  5
212
330
1F
100
AcDbEntity
  8
0
  6
Continuous
 62
     7
370
    15
100
AcDbCircle
 10
379.637284109
 20
612.2209112804
 30
0.0
 40
1.0
100
AcDbArc
 50
224.1440002858
 51
270.0
  0
LINE
  5
213
330
1F
100
AcDbEntity
  8
0
  6
Continuous
 62
     7
370
    15
100
AcDbLine
 10
379.6372841981
 20
611.2209094823
 30
0.0
 11
379.7553013948
 21
611.2209094823
 31
0.0
  0
LWPOLYLINE
  5
214
330
1F
100
AcDbEntity
  8
0
  6
Continuous
 62
     7
370
    15
100
AcDbPolyline
 90
        3
 70
   128
 43
0.0
 10
382.0525836137
 20
577.2988444329
 10
381.843967357
 20
576.1085620284
 10
381.4877998021
 20
575.3924047709
  0
ARC
  5
215
330
1F
100
AcDbEntity
  8
0
  6
Continuous
 62
     7
370
    15
100
AcDbCircle
 10
378.5525821832
 20
577.298846426
 30
0.0
 40
3.500000000000122
100
AcDbArc
 50
181.0639402281
 51
271.3221928089
  0
ARC
  5
216
330
1F
100
AcDbEntity
  8
0
  6
Continuous
 62
     7
370
    15
100
AcDbCircle
 10
369.7349951427
 20
606.3882368943
 30
0.0
 40
9.50000000000039
100
AcDbArc
 50
350.0
 51
20.0
  0
ARC
  5
217
330
1F
100
AcDbEntity
  8
0
  6
Continuous
 62
     7
370
    15
100
AcDbCircle
 10
379.1461999766
 20
577.9963419528
 30
0.0
 40
4.698428302688012
100
AcDbArc
 50
170.0
 51
264.3261771658
  0
LINE
  5
218
330
1F
100
AcDbEntity
  8
0
  6
Continuous
 62
     7
370
    15
100
AcDbLine
 10
374.7156243709
 20
579.9264704943
 30
0.0
 11
374.5191525605
 21
578.8122138143
 31
0.0
  0
SPLINE
  5
219
330
1F
100
AcDbEntity
  8
0
  6
Continuous
 62
     7
370
    15
100
AcDbSpline
210
0.0
220
0.0
230
1.0
 70
     8
 71
     3
 72
    12
 73
     8
 74
     0
 42
0.00000001
 43
0.00000001
 40
0.0
 40
0.0
 40
0.0
 40
0.0
 40
0.2340518500848962
 40
0.4681084143424835
 40
0.7021652771456403
 40
0.9362190989366869
 40
0.9999999999999999
 40
0.9999999999999999
 40
0.9999999999999999
 40
0.9999999999999999
 10
379.8495661404694
 20
578.1859627127985
 30
0.0
 10
379.653173288671
 20
578.1665801021799
 30
0.0
 10
379.260383629413
 20
578.1278144905465
 30
0.0
 10
378.7228846334548
 20
578.1225723452111
 30
0.0
 10
378.3493829234338
 20
578.161055021638
 30
0.0
 10
378.1701898227643
 20
578.215705168084
 30
0.0
 10
378.1989089317934
 20
578.2596608827985
 30
0.0
 10
378.2050590899552
 20
578.2690739393572
 30
0.0
  0
SPLINE
  5
21A
330
1F
100
AcDbEntity
  8
0
  6
Continuous
 62
     7
370
    15
100
AcDbSpline
210
0.0
220
0.0
230
1.0
 70
     8
 71
     3
 72
    11
 73
     7
 74
     0
 42
0.00000001
 43
0.00000001
 40
0.0
 40
0.0
 40
0.0
 40
0.0
 40
0.1986868986185168
 40
0.4657930972863268
 40
0.7328953533015765
 40
1.0
 40
1.0
 40
1.0
 40
1.0
 10
381.1454754260147
 20
578.5648470878939
 30
0.0
 10
381.1442925670841
 20
578.5403572031892
 30
0.0
 10
381.1415195230193
 20
578.4829441612217
 30
0.0
 10
380.8719814920598
 20
578.3758521975182
 30
0.0
 10
380.4249308879834
 20
578.265045544225
 30
0.0
 10
380.0413549618339
 20
578.2123237352542
 30
0.0
 10
379.8495661404694
 20
578.1859627127985
 30
0.0
  0
SPLINE
  5
21B
330
1F
100
AcDbEntity
  8
0
  6
Continuous
 62
     7
370
    15
100
AcDbSpline
210
0.0
220
0.0
230
1.0
 70
     8
 71
     3
 72
    12
 73
     8
 74
     0
 42
0.00000001
 43
0.00000001
 40
0.0
 40
0.0
 40
0.0
 40
0.0
 40
0.2339657516747459
 40
0.4679297819377307
 40
0.7018962886705131
 40
0.9358626214262192
 40
1.0
 40
1.0
 40
1.0
 40
1.0
 10
379.2425822403992
 20
584.1978361964564
 30
0.0
 10
379.046502057516
 20
584.1753301751022
 30
0.0
 10
378.6543431344166
 20
584.1303182979824
 30
0.0
 10
378.1514110672053
 20
583.7828292407777
 30
0.0
 10
377.8315986761878
 20
583.2893421907161
 30
0.0
 10
377.7036714884173
 20
582.8357575514538
 30
0.0
 10
377.7614605939769
 20
582.5927645803206
 30
0.0
 10
377.7738939908112
 20
582.540484344993
 30
0.0
  0
SPLINE
  5
21C
330
1F
100
AcDbEntity
  8
0
  6
Continuous
 62
     7
370
    15
100
AcDbSpline
210
0.0
220
0.0
230
1.0
 70
     8
 71
     3
 72
    11
 73
     7
 74
     0
 42
0.00000001
 43
0.00000001
 40
0.0
 40
0.0
 40
0.0
 40
0.0
 40
0.197688317045171
 40
0.4651245499065082
 40
0.732557952030392
 40
1.0
 40
1.0
 40
1.0
 40
1.0
 10
380.7128053095902
 20
582.8475451231341
 30
0.0
 10
380.6945251147367
 20
582.992296112822
 30
0.0
 10
380.651515150716
 20
583.3328687876946
 30
0.0
 10
380.3260559400418
 20
583.7826416932717
 30
0.0
 10
379.8327601834228
 20
584.13036820901
 30
0.0
 10
379.439310341344
 20
584.1753466249605
 30
0.0
 10
379.2425822403992
 20
584.1978361964564
 30
0.0
  0
SPLINE
  5
21D
330
1F
100
AcDbEntity
  8
0
  6
Continuous
 62
     7
370
    15
100
AcDbSpline
210
0.0
220
0.0
230
1.0
 70
     8
 71
     3
 72
    12
 73
     8
 74
     0
 42
0.00000001
 43
0.00000001
 40
0.0
 40
0.0
 40
0.0
 40
0.0
 40
0.2350177692308577
 40
0.4700293194518742
 40
0.705046154045834
 40
0.9400624094103337
 40
1.0
 40
1.0
 40
1.0
 40
1.0
 10
381.4186435130204
 20
562.6449903607706
 30
0.0
 10
381.2222527360717
 20
562.625612474612
 30
0.0
 10
380.8294763790416
 20
562.5868572150697
 30
0.0
 10
380.2918685512388
 20
562.5815878001532
 30
0.0
 10
379.9188032437676
 20
562.6201174049011
 30
0.0
 10
379.7397615480187
 20
562.6742272237196
 30
0.0
 10
379.7676621222603
 20
562.7175289936159
 30
0.0
 10
379.7733317998017
 20
562.7263283491473
 30
0.0
  0
SPLINE
  5
21E
330
1F
100
AcDbEntity
  8
0
  6
Continuous
 62
     7
370
    15
100
AcDbSpline
210
0.0
220
0.0
230
1.0
 70
     8
 71
     3
 72
    11
 73
     7
 74
     0
 42
0.00000001
 43
0.00000001
 40
0.0
 40
0.0
 40
0.0
 40
0.0
 40
0.1989239528429226
 40
0.4659512217777148
 40
0.7329742825759883
 40
0.9999999999999999
 40
0.9999999999999999
 40
0.9999999999999999
 40
0.9999999999999999
 10
382.7145975020493
 20
563.023986494575
 30
0.0
 10
382.7134236307622
 20
562.9994608752567
 30
0.0
 10
382.7106740033161
 20
562.9420130811479
 30
0.0
 10
382.4410686019214
 20
562.8348805049553
 30
0.0
 10
381.9940055656114
 20
562.7240729812444
 30
0.0
 10
381.6104314999138
 20
562.6713513216831
 30
0.0
 10
381.4186435130204
 20
562.6449903607706
 30
0.0
  0
ARC
  5
21F
330
1F
100
AcDbEntity
  8
0
  6
Continuous
 62
     7
370
    15
100
AcDbCircle
 10
382.6198713568
 20
572.9466222923
 30
0.0
 40
0.4000075631347627
100
AcDbArc
 50
0.1476654792
 51
179.5012206112
  0
ELLIPSE
  5
220
330
1F
100
AcDbEntity
  8
0
  6
Continuous
 62
     7
370
    15
100
AcDbEllipse
 10
382.6198815835
 20
572.6817380323
 30
0.0
 11
0.3991830274373456
 21
-0.02624604221148275
 31
0.0
210
0.0
220
0.0
230
1.0
 40
0.9763157485
 41
0.0
 42
6.283185307179586
  0
SPLINE
  5
221
330
1F
100
AcDbEntity
  8
0
  6
Continuous
 62
     7
370
    15
100
AcDbSpline
210
0.0
220
0.0
230
1.0
 70
     8
 71
     3
 72
    13
 73
     9
 74
     0
 42
0.00000001
 43
0.00000001
 40
0.0
 40
0.0
 40
0.0
 40
0.0
 40
0.0081702305184465
 40
0.2391540597909445
 40
0.4710939174990594
 40
0.693120466081165
 40
0.9042225443386908
 40
1.0
 40
1.0
 40
1.0
 40
1.0
 10
382.6198857215012
 20
573.410572683845
 30
0.0
 10
382.6182268203682
 20
573.4101778884722
 30
0.0
 10
382.569668466982
 20
573.3986216764449
 30
0.0
 10
382.4735364749087
 20
573.3754254469973
 30
0.0
 10
382.3507004011461
 20
573.3317835281226
 30
0.0
 10
382.2650512246384
 20
573.2943290408645
 30
0.0
 10
382.221032427631
 20
573.2731825595052
 30
0.0
 10
382.2242644521837
 20
573.2682037199945
 30
0.0
 10
382.2252731707657
 20
573.2666498184542
 30
0.0
  0
SPLINE
  5
222
330
1F
100
AcDbEntity
  8
0
  6
Continuous
 62
     7
370
    15
100
AcDbSpline
210
0.0
220
0.0
230
1.0
 70
     8
 71
     3
 72
    13
 73
     9
 74
     0
 42
0.00000001
 43
0.00000001
 40
0.0
 40
0.0
 40
0.0
 40
0.0
 40
0.1252296879662176
 40
0.2499794292580681
 40
0.4999947319567645
 40
0.7499963794204163
 40
0.8747535951942165
 40
1.0
 40
1.0
 40
1.0
 40
1.0
 10
383.0198924925888
 20
573.4048804402689
 30
0.0
 10
383.0181780630701
 20
573.4049071931223
 30
0.0
 10
383.0147557746371
 20
573.4049605962979
 30
0.0
 10
382.9803770994675
 20
573.4054372260141
 30
0.0
 10
382.9050962426773
 20
573.4065144336663
 30
0.0
 10
382.7964476471593
 20
573.4080640304129
 30
0.0
 10
382.6977365665941
 20
573.4094608135515
 30
0.0
 10
382.6458698328918
 20
573.4102015772562
 30
0.0
 10
382.6198857215012
 20
573.410572683845
 30
0.0
  0
SPLINE
  5
223
330
1F
100
AcDbEntity
  8
0
  6
Continuous
 62
     7
370
    15
100
AcDbSpline
210
0.0
220
0.0
230
1.0
 70
     8
 71
     3
 72
    10
 73
     6
 74
     0
 42
0.00000001
 43
0.00000001
 40
0.0
 40
0.0
 40
0.0
 40
0.0
 40
0.0190107309040389
 40
0.5253203859619627
 40
1.0
 40
1.0
 40
1.0
 40
1.0
 10
382.6198857215012
 20
573.410572683845
 30
0.0
 10
382.621410071482
 20
573.4113103806454
 30
0.0
 10
382.6635321826363
 20
573.4316950344436
 30
0.0
 10
382.7460510166608
 20
573.4701097697342
 30
0.0
 10
382.8162065913339
 20
573.496214381559
 30
0.0
 10
382.8501533654297
 20
573.5088458419184
 30
0.0
  0
LINE
  5
224
330
1F
100
AcDbEntity
  8
0
  6
Continuous
 62
     7
370
    15
100
AcDbLine
 10
377.7433615115
 20
582.6498067141
 30
0.0
 11
377.7558188823
 21
582.4990367651
 31
0.0
  0
LINE
  5
225
330
1F
100
AcDbEntity
  8
0
  6
Continuous
 62
     7
370
    15
100
AcDbLine
 10
380.7355891851
 20
582.8425457836
 30
0.0
 11
380.7000052121
 21
583.052711761
 31
0.0
  0
LINE
  5
226
330
1F
100
AcDbEntity
  8
0
  6
Continuous
 62
     7
370
    15
100
AcDbLine
 10
398.552579799
 20
641.5088467434
 30
0.0
 11
398.552579799
 21
656.5088464082
 31
0.0
  0
LINE
  5
227
330
1F
100
AcDbEntity
  8
0
  6
Continuous
 62
     7
370
    15
100
AcDbLine
 10
398.552579799
 20
641.5088467434
 30
0.0
 11
383.5525792029
 21
641.5088467434
 31
0.0
  0
ARC
  5
228
330
1F
100
AcDbEntity
  8
0
  6
Continuous
 62
     7
370
    15
100
AcDbCircle
 10
398.5525821832
 20
641.508846426
 30
0.0
 40
15.0
100
AcDbArc
 50
90.0
 51
180.0
  0
LINE
  5
229
330
1F
100
AcDbEntity
  8
0
  6
Continuous
 62
     7
370
    15
100
AcDbLine
 10
768.5525845674
 20
641.5088467434
 30
0.0
 11
783.5525851634
 21
641.5088467434
 31
0.0
  0
LINE
  5
22A
330
1F
100
AcDbEntity
  8
0
  6
Continuous
 62
     7
370
    15
100
AcDbLine
 10
768.5525845674
 20
641.5088467434
 30
0.0
 11
768.5525845674
 21
656.5088464082
 31
0.0
  0
ARC
  5
22B
330
1F
100
AcDbEntity
  8
0
  6
Continuous
 62
     7
370
    15
100
AcDbCircle
 10
768.5525821832
 20
641.508846426
 30
0.0
 40
15.00000000000023
100
AcDbArc
 50
0.0
 51
90.0
  0
LINE
  5
22C
330
1F
100
AcDbEntity
  8
0
  6
Continuous
 62
     7
370
    15
100
AcDbLine
 10
768.5525845674
 20
641.5088467434
 30
0.0
 11
398.552579799
 21
641.5088467434
 31
0.0
  0
LINE
  5
22D
330
1F
100
AcDbEntity
  8
0
  6
Continuous
 62
     7
370
    15
100
AcDbLine
 10
768.5525845674
 20
656.5088464082
 30
0.0
 11
398.552579799
 21
656.5088464082
 31
0.0
  0
LINE
  5
22E
330
1F
100
AcDbEntity
  8
0
  6
Continuous
 62
     7
370
    15
100
AcDbLine
 10
398.552579799
 20
560.508849299
 30
0.0
 11
398.552579799
 21
641.5088467434
 31
0.0
  0
LINE
  5
22F
330
1F
100
AcDbEntity
  8
0
  6
Continuous
 62
     7
370
    15
100
AcDbLine
 10
398.552579799
 20
560.508849299
 30
0.0
 11
383.5525792029
 21
560.508849299
 31
0.0
  0
LINE
  5
230
330
1F
100
AcDbEntity
  8
0
  6
Continuous
 62
     7
370
    15
100
AcDbLine
 10
383.5525792029
 20
560.508849299
 30
0.0
 11
383.5525792029
 21
641.5088467434
 31
0.0
  0
LINE
  5
231
330
1F
100
AcDbEntity
  8
0
  6
Continuous
 62
     7
370
    15
100
AcDbLine
 10
783.5525851634
 20
560.508849299
 30
0.0
 11
783.5525851634
 21
641.5088467434
 31
0.0
  0
LINE
  5
232
330
1F
100
AcDbEntity
  8
0
  6
Continuous
 62
     7
370
    15
100
AcDbLine
 10
783.5525851634
 20
560.508849299
 30
0.0
 11
768.5525845674
 21
560.508849299
 31
0.0
  0
LINE
  5
233
330
1F
100
AcDbEntity
  8
0
  6
Continuous
 62
     7
370
    15
100
AcDbLine
 10
768.5525845674
 20
560.508849299
 30
0.0
 11
768.5525845674
 21
641.5088467434
 31
0.0
  0
LINE
  5
234
330
1F
100
AcDbEntity
  8
0
  6
Continuous
 62
     7
370
    15
100
AcDbLine
 10
403.5525750306
 20
580.5088451267
 30
0.0
 11
403.5525750306
 21
636.5088468552
 31
0.0
  0
LINE
  5
235
330
1F
100
AcDbEntity
  8
0
  6
Continuous
 62
     7
370
    15
100
AcDbLine
 10
403.5525750306
 20
580.5088451267
 30
0.0
 11
763.5525893357
 21
580.5088451267
 31
0.0
  0
LINE
  5
236
330
1F
100
AcDbEntity
  8
0
  6
Continuous
 62
     7
370
    15
100
AcDbLine
 10
763.5525893357
 20
636.5088468552
 30
0.0
 11
763.5525893357
 21
580.5088451267
 31
0.0
  0
LINE
  5
237
330
1F
100
AcDbEntity
  8
0
  6
Continuous
 62
     7
370
    15
100
AcDbLine
 10
763.5525893357
 20
636.5088468552
 30
0.0
 11
403.5525750306
 21
636.5088468552
 31
0.0
  0
LINE
  5
238
330
1F
100
AcDbEntity
  8
0
  6
Continuous
 62
     7
370
    15
100
AcDbLine
 10
768.5525845674
 20
560.508849299
 30
0.0
 11
398.552579799
 21
560.508849299
 31
0.0
  0
LINE
  5
239
330
1F
100
AcDbEntity
  8
0
  6
Continuous
 62
     7
370
    15
100
AcDbLine
 10
403.5525750306
 20
556.5088486433
 30
0.0
 11
403.5525750306
 21
560.508849299
 31
0.0
  0
LINE
  5
23A
330
1F
100
AcDbEntity
  8
0
  6
Continuous
 62
     7
370
    15
100
AcDbLine
 10
388.5525893357
 20
556.5088486433
 30
0.0
 11
388.5525893357
 21
560.508849299
 31
0.0
  0
LINE
  5
23B
330
1F
100
AcDbEntity
  8
0
  6
Continuous
 62
     7
370
    15
100
AcDbLine
 10
763.5525893357
 20
556.5088486433
 30
0.0
 11
763.5525893357
 21
560.508849299
 31
0.0
  0
LINE
  5
23C
330
1F
100
AcDbEntity
  8
0
  6
Continuous
 62
     7
370
    15
100
AcDbLine
 10
778.5525750306
 20
556.5088486433
 30
0.0
 11
778.5525750306
 21
560.508849299
 31
0.0
  0
LINE
  5
23D
330
1F
100
AcDbEntity
  8
0
  6
Continuous
 62
     7
370
    15
100
AcDbLine
 10
783.5525851634
 20
560.508849299
 30
0.0
 11
784.2199038652
 21
560.508849299
 31
0.0
  0
ARC
  5
23E
330
1F
100
AcDbEntity
  8
0
  6
Continuous
 62
     7
370
    15
100
AcDbCircle
 10
784.2198999313
 20
561.008846426
 30
0.0
 40
0.5000000000001582
100
AcDbArc
 50
270.0
 51
332.720387264
  0
ARC
  5
23F
330
1F
100
AcDbEntity
  8
0
  6
Continuous
 62
     7
370
    15
100
AcDbCircle
 10
783.9904333179
 20
556.008846426
 30
0.0
 40
0.4999999999998863
100
AcDbArc
 50
22.0243128371
 51
90.0
  0
ARC
  5
240
330
1F
100
AcDbEntity
  8
0
  6
Continuous
 62
     7
370
    15
100
AcDbCircle
 10
789.5525821832
 20
558.258846426
 30
0.0
 40
5.500000000000259
100
AcDbArc
 50
202.024312837
 51
152.720387264
  0
LINE
  5
241
330
1F
100
AcDbEntity
  8
0
  6
Continuous
 62
     7
370
    15
100
AcDbLine
 10
783.9904259828
 20
556.5088486433
 30
0.0
 11
783.5525851634
 21
556.5088486433
 31
0.0
  0
LINE
  5
242
330
1F
100
AcDbEntity
  8
0
  6
Continuous
 62
     7
370
    15
100
AcDbLine
 10
383.2525890258
 20
579.7088464856
 30
0.0
 11
383.5525792029
 21
579.7099044681
 31
0.0
  0
LINE
  5
243
330
1F
100
AcDbEntity
  8
0
  6
Continuous
 62
     7
370
    15
100
AcDbLine
 10
383.5525792029
 20
581.7088430882
 30
0.0
 11
383.2525890258
 21
581.7088430882
 31
0.0
  0
LINE
  5
244
330
1F
100
AcDbEntity
  8
0
  6
Continuous
 62
     7
370
    15
100
AcDbLine
 10
383.2525890258
 20
579.7088464856
 30
0.0
 11
383.2525890258
 21
581.7088430882
 31
0.0
  0
LINE
  5
245
330
1F
100
AcDbEntity
  8
0
  6
Continuous
 62
     7
370
    15
100
AcDbLine
 10
383.5525792029
 20
573.5088458419
 30
0.0
 11
383.2525890258
 21
573.5088458419
 31
0.0
  0
LINE
  5
246
330
1F
100
AcDbEntity
  8
0
  6
Continuous
 62
     7
370
    15
100
AcDbLine
 10
383.2525890258
 20
573.5088458419
 30
0.0
 11
383.2525890258
 21
579.7088464856
 31
0.0
  0
ARC
  5
247
330
1F
100
AcDbEntity
  8
0
  6
Continuous
 62
     7
370
    15
100
AcDbCircle
 10
378.3525821832
 20
576.608846426
 30
0.0
 40
3.09999999999995
100
AcDbArc
 50
192.3149181515
 51
270.0
  0
LINE
  5
248
330
1F
100
AcDbEntity
  8
0
  6
Continuous
 62
     7
370
    15
100
AcDbLine
 10
378.3525805858
 20
573.5088458419
 30
0.0
 11
378.6627184537
 21
573.5088458419
 31
0.0
  0
LINE
  5
249
330
1F
100
AcDbEntity
  8
0
  6
Continuous
 62
     7
370
    15
100
AcDbLine
 10
381.6779684213
 20
573.5088458419
 30
0.0
 11
383.2525890258
 21
573.5088458419
 31
0.0
  0
LINE
  5
24A
330
1F
100
AcDbEntity
  8
0
  6
Continuous
 62
     7
370
    15
100
AcDbLine
 10
383.2525890258
 20
579.7088464856
 30
0.0
 11
382.0525836137
 21
579.7088464856
 31
0.0
  0
LINE
  5
24B
330
1F
100
AcDbEntity
  8
0
  6
Continuous
 62
     7
370
    15
100
AcDbLine
 10
383.2525890258
 20
581.7088430882
 30
0.0
 11
383.2525890258
 21
605.7588478685
 31
0.0
  0
LINE
  5
24C
330
1F
100
AcDbEntity
  8
0
  6
Continuous
 62
     7
370
    15
100
AcDbLine
 10
383.2525890258
 20
612.5088466466
 30
0.0
 11
383.2525890258
 21
605.7588478685
 31
0.0
  0
LINE
  5
24D
330
1F
100
AcDbEntity
  8
0
  6
Continuous
 62
     7
370
    15
100
AcDbLine
 10
383.152587333
 20
605.5088473618
 30
0.0
 11
383.152587333
 21
611.50884462
 31
0.0
  0
LINE
  5
24E
330
1F
100
AcDbEntity
  8
0
  6
Continuous
 62
     7
370
    15
100
AcDbLine
 10
383.152587333
 20
582.5088491798
 30
0.0
 11
383.152587333
 21
588.508846438
 31
0.0
  0
LINE
  5
24F
330
1F
100
AcDbEntity
  8
0
  6
Continuous
 62
     7
370
    15
100
AcDbLine
 10
383.2525890258
 20
596.5088477493
 30
0.0
 11
382.0525836137
 21
596.8303850055
 31
0.0
  0
LINE
  5
250
330
1F
100
AcDbEntity
  8
0
  6
Continuous
 62
     7
370
    15
100
AcDbLine
 10
382.0525836137
 20
597.8656618059
 30
0.0
 11
383.2525890258
 21
597.5441208244
 31
0.0
  0
LINE
  5
251
330
1F
100
AcDbEntity
  8
0
  6
Continuous
 62
     8
370
    15
100
AcDbLine
 10
383.5525792029
 20
605.7588478685
 30
0.0
 11
383.2525890258
 21
605.7588478685
 31
0.0
  0
ENDSEC
  0
SECTION
  2
OBJECTS
  0
DICTIONARY
  5
C
330
0
100
AcDbDictionary
281
     1
  3
ACAD_GROUP
350
D
  3
ACAD_LAYOUT
350
1A
  3
ACAD_MLINESTYLE
350
17
  3
ACAD_PLOTSETTINGS
350
19
  3
ACAD_PLOTSTYLENAME
350
E
  0
DICTIONARY
  5
D
102
{ACAD_REACTORS
330
C
102
}
330
C
100
AcDbDictionary
281
     1
  0
DICTIONARY
  5
1A
102
{ACAD_REACTORS
330
C
102
}
330
C
100
AcDbDictionary
281
     1
  3
Layout1
350
1E
  3
Layout2
350
26
  3
Model
350
22
  0
DICTIONARY
  5
17
102
{ACAD_REACTORS
330
C
102
}
330
C
100
AcDbDictionary
281
     1
  3
Standard
350
18
  0
DICTIONARY
  5
19
102
{ACAD_REACTORS
330
C
102
}
330
C
100
AcDbDictionary
281
     1
  0
ACDBDICTIONARYWDFLT
  5
E
102
{ACAD_REACTORS
330
C
102
}
330
C
100
AcDbDictionary
281
     1
  3
Normal
350
F
100
AcDbDictionaryWithDefault
340
F
  0
LAYOUT
  5
1E
102
{ACAD_REACTORS
330
1A
102
}
330
1A
100
AcDbPlotSettings
  1

  2
none_device
  4

  6

 40
0.0
 41
0.0
 42
0.0
 43
0.0
 44
0.0
 45
0.0
 46
0.0
 47
0.0
 48
0.0
 49
0.0
140
0.0
141
0.0
142
1.0
143
1.0
 70
   688
 72
     0
 73
     0
 74
     5
  7

 75
    16
147
1.0
148
0.0
149
0.0
100
AcDbLayout
  1
Layout1
 70
     1
 71
     1
 10
0.0
 20
0.0
 11
420.0
 21
297.0
 12
0.0
 22
0.0
 32
0.0
 14
1.0000000000E+20
 24
1.0000000000E+20
 34
1.0000000000E+20
 15
-1.0000000000E+20
 25
-1.0000000000E+20
 35
-1.0000000000E+20
146
0.0
 13
0.0
 23
0.0
 33
0.0
 16
1.0
 26
0.0
 36
0.0
 17
0.0
 27
1.0
 37
0.0
 76
     0
330
1B
  0
LAYOUT
  5
26
102
{ACAD_REACTORS
330
1A
102
}
330
1A
100
AcDbPlotSettings
  1

  2
none_device
  4

  6

 40
0.0
 41
0.0
 42
0.0
 43
0.0
 44
0.0
 45
0.0
 46
0.0
 47
0.0
 48
0.0
 49
0.0
140
0.0
141
0.0
142
1.0
143
1.0
 70
   688
 72
     0
 73
     0
 74
     5
  7

 75
    16
147
1.0
148
0.0
149
0.0
100
AcDbLayout
  1
Layout2
 70
     1
 71
     2
 10
0.0
 20
0.0
 11
0.0
 21
0.0
 12
0.0
 22
0.0
 32
0.0
 14
0.0
 24
0.0
 34
0.0
 15
0.0
 25
0.0
 35
0.0
146
0.0
 13
0.0
 23
0.0
 33
0.0
 16
1.0
 26
0.0
 36
0.0
 17
0.0
 27
1.0
 37
0.0
 76
     0
330
23
  0
LAYOUT
  5
22
102
{ACAD_REACTORS
330
1A
102
}
330
1A
100
AcDbPlotSettings
  1

  2
none_device
  4

  6

 40
0.0
 41
0.0
 42
0.0
 43
0.0
 44
0.0
 45
0.0
 46
0.0
 47
0.0
 48
0.0
 49
0.0
140
0.0
141
0.0
142
1.0
143
1.0
 70
  1712
 72
     0
 73
     0
 74
     0
  7

 75
     0
147
1.0
148
0.0
149
0.0
100
AcDbLayout
  1
Model
 70
     1
 71
     0
 10
0.0
 20
0.0
 11
840.0
 21
594.0
 12
0.0
 22
0.0
 32
0.0
 14
0.0
 24
0.0
 34
0.0
 15
840.0
 25
594.0
 35
0.0
146
0.0
 13
0.0
 23
0.0
 33
0.0
 16
1.0
 26
0.0
 36
0.0
 17
0.0
 27
1.0
 37
0.0
 76
     0
330
1F
331
29
  0
MLINESTYLE
  5
18
102
{ACAD_REACTORS
330
17
102
}
330
17
100
AcDbMlineStyle
  2
Standard
 70
     0
  3

 62
   256
 51
90.0
 52
90.0
 71
     2
 49
0.5
 62
   256
  6
BYLAYER
 49
-0.5
 62
   256
  6
BYLAYER
  0
ACDBPLACEHOLDER
  5
F
102
{ACAD_REACTORS
330
E
102
}
330
E
  0
ENDSEC
  0
EOF
