  0
SECTION
  2
HEADER
  9
$ACADVER
  1
AC1015
  9
$ACADMAINTVER
 70
     6
  9
$DWGCODEPAGE
  3
DOS932
  9
$INSBASE
 10
0.0
 20
0.0
 30
0.0
  9
$EXTMIN
 10
0.0
 20
0.0
 30
0.0
  9
$EXTMAX
 10
840.0
 20
594.0
 30
0.0
  9
$LIMMIN
 10
0.0
 20
0.0
  9
$LIMMAX
 10
840.0
 20
594.0
  9
$ORTHOMODE
 70
     0
  9
$REGENMODE
 70
     1
  9
$FILLMODE
 70
     1
  9
$QTEXTMODE
 70
     0
  9
$MIRRTEXT
 70
     1
  9
$LTSCALE
 40
2.0
  9
$ATTMODE
 70
     1
  9
$TEXTSIZE
 40
7.0
  9
$TRACEWID
 40
1.0
  9
$TEXTSTYLE
  7
Standard
  9
$CLAYER
  8
0
  9
$CELTYPE
  6
ByLayer
  9
$CECOLOR
 62
   256
  9
$CELTSCALE
 40
1.0
  9
$DISPSILH
 70
     0
  9
$DIMSCALE
 40
1.0
  9
$DIMASZ
 40
6.0
  9
$DIMEXO
 40
2.0
  9
$DIMDLI
 40
3.75
  9
$DIMRND
 40
0.0
  9
$DIMDLE
 40
0.0
  9
$DIMEXE
 40
2.0
  9
$DIMTP
 40
0.0
  9
$DIMTM
 40
0.0
  9
$DIMTXT
 40
7.0
  9
$DIMCEN
 40
2.5
  9
$DIMTSZ
 40
0.0
  9
$DIMTOL
 70
     0
  9
$DIMLIM
 70
     0
  9
$DIMTIH
 70
     1
  9
$DIMTOH
 70
     1
  9
$DIMSE1
 70
     0
  9
$DIMSE2
 70
     0
  9
$DIMTAD
 70
     1
  9
$DIMZIN
 70
     0
  9
$DIMBLK
  1

  9
$DIMASO
 70
     1
  9
$DIMSHO
 70
     1
  9
$DIMPOST
  1

  9
$DIMAPOST
  1

  9
$DIMALT
 70
     0
  9
$DIMALTD
 70
     3
  9
$DIMALTF
 40
0.0393700787
  9
$DIMLFAC
 40
1.0
  9
$DIMTOFL
 70
     1
  9
$DIMTVP
 40
0.0
  9
$DIMTIX
 70
     0
  9
$DIMSOXD
 70
     0
  9
$DIMSAH
 70
     0
  9
$DIMBLK1
  1

  9
$DIMBLK2
  1

  9
$DIMSTYLE
  2
ISO-25
  9
$DIMCLRD
 70
     0
  9
$DIMCLRE
 70
     0
  9
$DIMCLRT
 70
     0
  9
$DIMTFAC
 40
1.0
  9
$DIMGAP
 40
3.048
  9
$DIMJUST
 70
     0
  9
$DIMSD1
 70
     0
  9
$DIMSD2
 70
     0
  9
$DIMTOLJ
 70
     0
  9
$DIMTZIN
 70
     0
  9
$DIMALTZ
 70
     0
  9
$DIMALTTZ
 70
     0
  9
$DIMUPT
 70
     0
  9
$DIMDEC
 70
     1
  9
$DIMTDEC
 70
     1
  9
$DIMALTU
 70
     2
  9
$DIMALTTD
 70
     3
  9
$DIMTXSTY
  7
Standard
  9
$DIMAUNIT
 70
     0
  9
$DIMADEC
 70
     2
  9
$DIMALTRND
 40
0.0
  9
$DIMAZIN
 70
     0
  9
$DIMDSEP
 70
    44
  9
$DIMATFIT
 70
     3
  9
$DIMFRAC
 70
     0
  9
$DIMLDRBLK
  1

  9
$DIMLUNIT
 70
     2
  9
$DIMLWD
 70
    -2
  9
$DIMLWE
 70
    -2
  9
$DIMTMOVE
 70
     0
  9
$LUNITS
 70
     2
  9
$LUPREC
 70
     1
  9
$SKETCHINC
 40
1.0
  9
$FILLETRAD
 40
10.0
  9
$AUNITS
 70
     0
  9
$AUPREC
 70
     2
  9
$MENU
  1
.
  9
$ELEVATION
 40
0.0
  9
$PELEVATION
 40
0.0
  9
$THICKNESS
 40
0.0
  9
$LIMCHECK
 70
     0
  9
$CHAMFERA
 40
10.0
  9
$CHAMFERB
 40
10.0
  9
$CHAMFERC
 40
20.0
  9
$CHAMFERD
 40
0.0
  9
$SKPOLY
 70
     0
  9
$TDCREATE
 40
2460440.584585231
  9
$TDUCREATE
 40
2460440.209585231
  9
$TDUPDATE
 40
2460440.584585243
  9
$TDUUPDATE
 40
2460440.209585243
  9
$TDINDWG
 40
0.0000000116
  9
$TDUSRTIMER
 40
0.0000000116
  9
$USRTIMER
 70
     1
  9
$ANGBASE
 50
0.0
  9
$ANGDIR
 70
     0
  9
$PDMODE
 70
     0
  9
$PDSIZE
 40
-1.0
  9
$PLINEWID
 40
0.0
  9
$SPLFRAME
 70
     0
  9
$SPLINETYPE
 70
     6
  9
$SPLINESEGS
 70
     8
  9
$HANDSEED
  5
253
  9
$SURFTAB1
 70
     6
  9
$SURFTAB2
 70
     6
  9
$SURFTYPE
 70
     6
  9
$SURFU
 70
     6
  9
$SURFV
 70
     6
  9
$UCSBASE
  2

  9
$UCSNAME
  2

  9
$UCSORG
 10
0.0
 20
0.0
 30
0.0
  9
$UCSXDIR
 10
1.0
 20
0.0
 30
0.0
  9
$UCSYDIR
 10
0.0
 20
1.0
 30
0.0
  9
$UCSORTHOREF
  2

  9
$UCSORTHOVIEW
 70
     0
  9
$UCSORGTOP
 10
0.0
 20
0.0
 30
0.0
  9
$UCSORGBOTTOM
 10
0.0
 20
0.0
 30
0.0
  9
$UCSORGLEFT
 10
0.0
 20
0.0
 30
0.0
  9
$UCSORGRIGHT
 10
0.0
 20
0.0
 30
0.0
  9
$UCSORGFRONT
 10
0.0
 20
0.0
 30
0.0
  9
$UCSORGBACK
 10
0.0
 20
0.0
 30
0.0
  9
$PUCSBASE
  2

  9
$PUCSNAME
  2

  9
$PUCSORG
 10
0.0
 20
0.0
 30
0.0
  9
$PUCSXDIR
 10
1.0
 20
0.0
 30
0.0
  9
$PUCSYDIR
 10
0.0
 20
1.0
 30
0.0
  9
$PUCSORTHOREF
  2

  9
$PUCSORTHOVIEW
 70
     0
  9
$PUCSORGTOP
 10
0.0
 20
0.0
 30
0.0
  9
$PUCSORGBOTTOM
 10
0.0
 20
0.0
 30
0.0
  9
$PUCSORGLEFT
 10
0.0
 20
0.0
 30
0.0
  9
$PUCSORGRIGHT
 10
0.0
 20
0.0
 30
0.0
  9
$PUCSORGFRONT
 10
0.0
 20
0.0
 30
0.0
  9
$PUCSORGBACK
 10
0.0
 20
0.0
 30
0.0
  9
$USERI1
 70
     0
  9
$USERI2
 70
     0
  9
$USERI3
 70
     0
  9
$USERI4
 70
     0
  9
$USERI5
 70
     0
  9
$USERR1
 40
0.0
  9
$USERR2
 40
0.0
  9
$USERR3
 40
0.0
  9
$USERR4
 40
0.0
  9
$USERR5
 40
0.0
  9
$WORLDVIEW
 70
     1
  9
$SHADEDGE
 70
     3
  9
$SHADEDIF
 70
    70
  9
$TILEMODE
 70
     1
  9
$MAXACTVP
 70
    64
  9
$PINSBASE
 10
0.0
 20
0.0
 30
0.0
  9
$PLIMCHECK
 70
     0
  9
$PEXTMIN
 10
1.0000000000E+20
 20
1.0000000000E+20
 30
1.0000000000E+20
  9
$PEXTMAX
 10
-1.0000000000E+20
 20
-1.0000000000E+20
 30
-1.0000000000E+20
  9
$PLIMMIN
 10
0.0
 20
0.0
  9
$PLIMMAX
 10
420.0
 20
297.0
  9
$UNITMODE
 70
     0
  9
$VISRETAIN
 70
     1
  9
$PLINEGEN
 70
     0
  9
$PSLTSCALE
 70
     1
  9
$TREEDEPTH
 70
  3020
  9
$CMLSTYLE
  2
Standard
  9
$CMLJUST
 70
     0
  9
$CMLSCALE
 40
20.0
  9
$PROXYGRAPHICS
 70
     1
  9
$MEASUREMENT
 70
     1
  9
$CELWEIGHT
370
    -1
  9
$ENDCAPS
280
     0
  9
$JOINSTYLE
280
     0
  9
$LWDISPLAY
290
     1
  9
$INSUNITS
 70
     4
  9
$HYPERLINKBASE
  1

  9
$STYLESHEET
  1

  9
$XEDIT
290
     1
  9
$CEPSNTYPE
380
     0
  9
$PSTYLEMODE
290
     1
  9
$FINGERPRINTGUID
  2
{FF7CEE32-DEFD-476A-95DF-464398150CAA}
  9
$VERSIONGUID
  2
{FAEB1C32-E019-11D5-929B-00C0DF256EC4}
  9
$EXTNAMES
290
     1
  9
$PSVPSCALE
 40
0.0
  9
$OLESTARTUP
290
     0
  0
ENDSEC
  0
SECTION
  2
CLASSES
  0
CLASS
  1
ACDBDICTIONARYWDFLT
  2
AcDbDictionaryWithDefault
  3
ObjectDBX Classes
 90
        0
280
     0
281
     0
  0
CLASS
  1
VISUALSTYLE
  2
AcDbVisualStyle
  3
ObjectDBX Classes
 90
     4095
280
     0
281
     0
  0
CLASS
  1
MATERIAL
  2
AcDbMaterial
  3
ObjectDBX Classes
 90
     1153
280
     0
281
     0
  0
CLASS
  1
ACDBPLACEHOLDER
  2
AcDbPlaceHolder
  3
ObjectDBX Classes
 90
        0
280
     0
281
     0
  0
CLASS
  1
LAYOUT
  2
AcDbLayout
  3
ObjectDBX Classes
 90
        0
280
     0
281
     0
  0
ENDSEC
  0
SECTION
  2
TABLES
  0
TABLE
  2
VPORT
  5
8
330
0
100
AcDbSymbolTable
 70
     1
  0
VPORT
  5
29
330
8
100
AcDbSymbolTableRecord
100
AcDbViewportTableRecord
  2
*Active
 70
     0
 10
0.0
 20
0.0
 11
1.0
 21
1.0
 12
420.0
 22
297.0
 13
0.0
 23
0.0
 14
10.0
 24
10.0
 15
10.0
 25
10.0
 16
0.0
 26
0.0
 36
1.0
 17
0.0
 27
0.0
 37
0.0
 40
594.0
 41
1.4141414141
 42
50.0
 43
0.0
 44
0.0
 50
0.0
 51
0.0
 71
     0
 72
  2000
 73
     1
 74
     3
 75
     0
 76
     0
 77
     0
 78
     0
281
     0
 65
     1
110
0.0
120
0.0
130
0.0
111
1.0
121
0.0
131
0.0
112
0.0
122
1.0
132
0.0
 79
     0
146
0.0
  0
ENDTAB
  0
TABLE
  2
LTYPE
  5
5
330
0
100
AcDbSymbolTable
 70
     6
  0
LTYPE
  5
14
330
5
100
AcDbSymbolTableRecord
100
AcDbLinetypeTableRecord
  2
ByBlock
 70
     0
  3

 72
    65
 73
     0
 40
0.0
  0
LTYPE
  5
15
330
5
100
AcDbSymbolTableRecord
100
AcDbLinetypeTableRecord
  2
ByLayer
 70
     0
  3

 72
    65
 73
     0
 40
0.0
  0
LTYPE
  5
16
330
5
100
AcDbSymbolTableRecord
100
AcDbLinetypeTableRecord
  2
Continuous
 70
     0
  3
Solid line
 72
    65
 73
     0
 40
0.0
  0
LTYPE
  5
3F
330
5
100
AcDbSymbolTableRecord
100
AcDbLinetypeTableRecord
  2
HIDDEN
 70
     0
  3
Hidden __ __ __ __ __ __ __ __ __ __ __ __ __ __
 72
    65
 73
     2
 40
1.905
 49
1.27
 74
     0
 49
-0.635
 74
     0
  0
LTYPE
  5
40
330
5
100
AcDbSymbolTableRecord
100
AcDbLinetypeTableRecord
  2
PHANTOM
 70
     0
  3
Phantom ______  __  __  ______  __  __  ______
 72
    65
 73
     6
 40
12.7
 49
6.35
 74
     0
 49
-1.27
 74
     0
 49
1.27
 74
     0
 49
-1.27
 74
     0
 49
1.27
 74
     0
 49
-1.27
 74
     0
  0
LTYPE
  5
41
330
5
100
AcDbSymbolTableRecord
100
AcDbLinetypeTableRecord
  2
CENTER
 70
     0
  3
Center ____ _ ____ _ ____ _ ____ _ ____ _ ____
 72
    65
 73
     4
 40
10.16
 49
6.35
 74
     0
 49
-1.27
 74
     0
 49
1.27
 74
     0
 49
-1.27
 74
     0
  0
LTYPE
  5
42
330
5
100
AcDbSymbolTableRecord
100
AcDbLinetypeTableRecord
  2
CENTERX2
 70
     0
  3
Center (2x) ________  __  ________  __  _____
 72
    65
 73
     4
 40
20.32
 49
12.7
 74
     0
 49
-2.54
 74
     0
 49
2.54
 74
     0
 49
-2.54
 74
     0
  0
LTYPE
  5
43
330
5
100
AcDbSymbolTableRecord
100
AcDbLinetypeTableRecord
  2
DOT2
 70
     0
  3
Dot (.5x) ........................................
 72
    65
 73
     2
 40
0.635
 49
0.0
 74
     0
 49
-0.635
 74
     0
  0
ENDTAB
  0
TABLE
  2
LAYER
  5
2
330
0
100
AcDbSymbolTable
 70
     1
  0
LAYER
  5
10
330
2
100
AcDbSymbolTableRecord
100
AcDbLayerTableRecord
  2
0
 70
     0
 62
     7
  6
Continuous
370
    -3
390
F
  0
ENDTAB
  0
TABLE
  2
STYLE
  5
3
330
0
100
AcDbSymbolTable
 70
     2
  0
STYLE
  5
11
330
3
100
AcDbSymbolTableRecord
100
AcDbTextStyleTableRecord
  2
Standard
 70
     0
 40
0.0
 41
1.0
 50
0.0
 71
     0
 42
2.5
  3
txt
  4
bigfont
  0
STYLE
  5
44
330
3
100
AcDbSymbolTableRecord
100
AcDbTextStyleTableRecord
  2
SLDTEXTSTYLE0
 70
     0
 40
0.0
 41
0.7
 50
0.0
 71
     0
 42
0.2
  3
TXT
  4
bigfont
  0
ENDTAB
  0
TABLE
  2
VIEW
  5
6
330
0
100
AcDbSymbolTable
 70
     0
  0
ENDTAB
  0
TABLE
  2
UCS
  5
7
330
0
100
AcDbSymbolTable
 70
     0
  0
ENDTAB
  0
TABLE
  2
APPID
  5
9
330
0
100
AcDbSymbolTable
 70
     1
  0
APPID
  5
12
330
9
100
AcDbSymbolTableRecord
100
AcDbRegAppTableRecord
  2
ACAD
 70
     0
  0
ENDTAB
  0
TABLE
  2
DIMSTYLE
  5
A
330
0
100
AcDbSymbolTable
 70
     1
100
AcDbDimStyleTable
  0
DIMSTYLE
105
27
330
A
100
AcDbSymbolTableRecord
100
AcDbDimStyleTableRecord
  2
ISO-25
 70
     0
 41
2.5
 42
0.625
 43
3.75
 44
1.25
 73
     0
 74
     0
 77
     1
 78
     8
140
2.5
141
2.5
143
0.0393700787
147
0.625
171
     3
172
     1
178
     0
271
     2
272
     2
274
     3
278
    44
283
     0
284
     8
340
11
  0
ENDTAB
  0
TABLE
  2
BLOCK_RECORD
  5
1
330
0
100
AcDbSymbolTable
 70
     1
  0
BLOCK_RECORD
  5
1F
330
1
100
AcDbSymbolTableRecord
100
AcDbBlockTableRecord
  2
*Model_Space
340
22
  0
BLOCK_RECORD
  5
1B
330
1
100
AcDbSymbolTableRecord
100
AcDbBlockTableRecord
  2
*Paper_Space
340
1E
  0
BLOCK_RECORD
  5
23
330
1
100
AcDbSymbolTableRecord
100
AcDbBlockTableRecord
  2
*Paper_Space0
340
26
  0
ENDTAB
  0
ENDSEC
  0
SECTION
  2
BLOCKS
  0
BLOCK
  5
20
330
1F
100
AcDbEntity
  8
0
100
AcDbBlockBegin
  2
*Model_Space
 70
     0
 10
0.0
 20
0.0
 30
0.0
  3
*Model_Space
  1

  0
ENDBLK
  5
21
330
1F
100
AcDbEntity
  8
0
100
AcDbBlockEnd
  0
BLOCK
  5
1C
330
1B
100
AcDbEntity
 67
     1
  8
0
100
AcDbBlockBegin
  2
*Paper_Space
 70
     0
 10
0.0
 20
0.0
 30
0.0
  3
*Paper_Space
  1

  0
ENDBLK
  5
1D
330
1B
100
AcDbEntity
 67
     1
  8
0
100
AcDbBlockEnd
  0
BLOCK
  5
24
330
23
100
AcDbEntity
  8
0
100
AcDbBlockBegin
  2
*Paper_Space0
 70
     0
 10
0.0
 20
0.0
 30
0.0
  3
*Paper_Space0
  1

  0
ENDBLK
  5
25
330
23
100
AcDbEntity
  8
0
100
AcDbBlockEnd
  0
ENDSEC
  0
SECTION
  2
ENTITIES
  0
MTEXT
  5
45
330
1F
100
AcDbEntity
  8
0
  6
Continuous
 62
     7
370
     0
100
AcDbMText
 10
198.6266100495
 20
536.630551241
 30
0.0
 40
7.0
 41
0.0
 71
     1
 72
     1
  1
CHB-502P
  7
SLDTEXTSTYLE0
 73
     1
 44
1.0
  0
LINE
  5
46
330
1F
100
AcDbEntity
  8
0
  6
Continuous
 62
     7
370
    15
100
AcDbLine
 10
385.3025486333
 20
282.0008493519
 30
0.0
 11
385.4025503261
 21
282.0008493519
 31
0.0
  0
LINE
  5
47
330
1F
100
AcDbEntity
  8
0
  6
Continuous
 62
     7
370
    15
100
AcDbLine
 10
385.4025503261
 20
288.0008496369
 30
0.0
 11
385.3025486333
 21
288.0008496369
 31
0.0
  0
LINE
  5
48
330
1F
100
AcDbEntity
  8
0
  6
Continuous
 62
     7
370
    15
100
AcDbLine
 10
385.3025486333
 20
272.0008488769
 30
0.0
 11
385.4025503261
 21
272.0008488769
 31
0.0
  0
LINE
  5
49
330
1F
100
AcDbEntity
  8
0
  6
Continuous
 62
     7
370
    15
100
AcDbLine
 10
385.4025503261
 20
278.0008491619
 30
0.0
 11
385.3025486333
 21
278.0008491619
 31
0.0
  0
LINE
  5
4A
330
1F
100
AcDbEntity
  8
0
  6
Continuous
 62
     7
370
    15
100
AcDbLine
 10
386.602540837
 20
291.5008492793
 30
0.0
 11
385.4025503261
 21
291.5008492793
 31
0.0
  0
LINE
  5
4B
330
1F
100
AcDbEntity
  8
0
  6
Continuous
 62
     7
370
    15
100
AcDbLine
 10
385.4025503261
 20
268.5008492345
 30
0.0
 11
386.602540837
 21
268.5008492345
 31
0.0
  0
LINE
  5
4C
330
1F
100
AcDbEntity
  8
0
  6
Continuous
 62
     7
370
    15
100
AcDbLine
 10
698.1025537116
 20
389.0008466343
 30
0.0
 11
698.1025537116
 21
424.000843058
 31
0.0
  0
LINE
  5
4D
330
1F
100
AcDbEntity
  8
0
  6
Continuous
 62
     7
370
    15
100
AcDbLine
 10
698.1025537116
 20
136.0008554558
 30
0.0
 11
698.1025537116
 21
171.0008518795
 31
0.0
  0
LINE
  5
4E
330
1F
100
AcDbEntity
  8
0
  6
Continuous
 62
     7
370
    15
100
AcDbLine
 10
377.4977376325
 20
283.9008491511
 30
0.0
 11
377.4977376325
 21
275.3008493247
 31
0.0
  0
LINE
  5
4F
330
1F
100
AcDbEntity
  8
0
  6
Continuous
 62
     7
370
    15
100
AcDbLine
 10
378.102545963
 20
288.0005953858
 30
0.0
 11
378.102545963
 21
287.2008491332
 31
0.0
  0
LINE
  5
50
330
1F
100
AcDbEntity
  8
0
  6
Continuous
 62
     7
370
    15
100
AcDbLine
 10
378.102545963
 20
272.8008493806
 30
0.0
 11
378.102545963
 21
272.001103128
 31
0.0
  0
LINE
  5
51
330
1F
100
AcDbEntity
  8
0
  6
Continuous
 62
     7
370
    15
100
AcDbLine
 10
379.5025398595
 20
288.3008491273
 30
0.0
 11
379.5025398595
 21
288.0008496369
 31
0.0
  0
ARC
  5
52
330
1F
100
AcDbEntity
  8
0
  6
Continuous
 62
     7
370
    15
100
AcDbCircle
 10
381.7025467975
 20
285.1937063998
 30
0.0
 40
3.807142857143199
100
AcDbArc
 50
77.9663271603
 51
90.0
  0
ARC
  5
53
330
1F
100
AcDbEntity
  8
0
  6
Continuous
 62
     7
370
    15
100
AcDbCircle
 10
381.7025467975
 20
285.1937063998
 30
0.0
 40
3.807142857143162
100
AcDbArc
 50
90.0
 51
125.3002484399
  0
LINE
  5
54
330
1F
100
AcDbEntity
  8
0
  6
Continuous
 62
     7
370
    15
100
AcDbLine
 10
379.6025415523
 20
271.6008495564
 30
0.0
 11
379.6025415523
 21
271.2008493046
 31
0.0
  0
ARC
  5
55
330
1F
100
AcDbEntity
  8
0
  6
Continuous
 62
     7
370
    15
100
AcDbCircle
 10
379.8025467975
 20
272.0008492569
 30
0.0
 40
0.4000000000008868
100
AcDbArc
 50
270.0
 51
0.0
  0
LINE
  5
56
330
1F
100
AcDbEntity
  8
0
  6
Continuous
 62
     7
370
    15
100
AcDbLine
 10
380.2025517089
 20
287.2008491332
 30
0.0
 11
380.2025517089
 21
286.750849432
 31
0.0
  0
LINE
  5
57
330
1F
100
AcDbEntity
  8
0
  6
Continuous
 62
     7
370
    15
100
AcDbLine
 10
380.2025517089
 20
273.2508490818
 30
0.0
 11
380.2025517089
 21
272.8008493806
 31
0.0
  0
SPLINE
  5
58
330
1F
100
AcDbEntity
  8
0
  6
Continuous
 62
     7
370
    15
100
AcDbSpline
210
0.0
220
0.0
230
1.0
 70
     8
 71
     3
 72
    11
 73
     7
 74
     0
 42
0.00000001
 43
0.00000001
 40
0.0
 40
0.0
 40
0.0
 40
0.0
 40
0.2262236325897269
 40
0.4679485216363518
 40
0.7254888709054915
 40
1.0
 40
1.0
 40
1.0
 40
1.0
 10
382.9230567080579
 20
288.2312839875487
 30
0.0
 10
382.9258838105959
 20
288.2083848029797
 30
0.0
 10
382.9317317339008
 20
288.1610173398942
 30
0.0
 10
382.9484914624064
 20
287.8362346836403
 30
0.0
 10
382.9620930230558
 20
287.3357354898085
 30
0.0
 10
382.962626939655
 20
286.911914245626
 30
0.0
 10
382.9629024130903
 20
286.6932443367807
 30
0.0
  0
SPLINE
  5
59
330
1F
100
AcDbEntity
  8
0
  6
Continuous
 62
     7
370
    15
100
AcDbSpline
210
0.0
220
0.0
230
1.0
 70
     8
 71
     3
 72
    12
 73
     8
 74
     0
 42
0.00000001
 43
0.00000001
 40
0.0
 40
0.0
 40
0.0
 40
0.0
 40
0.2489433810545054
 40
0.4822897574529931
 40
0.6998115288059334
 40
0.9035368986525243
 40
1.0
 40
1.0
 40
1.0
 40
1.0
 10
382.9629024130903
 20
273.1346135052411
 30
0.0
 10
382.9614765371682
 20
272.9972789049462
 30
0.0
 10
382.9587141204703
 20
272.7312141042451
 30
0.0
 10
382.9478131574112
 20
272.3954121501163
 30
0.0
 10
382.9453028511439
 20
272.1622360912811
 30
0.0
 10
382.9500920088202
 20
272.0421300033797
 30
0.0
 10
382.9765225112735
 20
272.0407835845593
 30
0.0
 10
382.9850157363019
 20
272.0403509239225
 30
0.0
  0
LINE
  5
5A
330
1F
100
AcDbEntity
  8
0
  6
Continuous
 62
     7
370
    15
100
AcDbLine
 10
382.9620530469
 20
286.7432442518
 30
0.0
 11
382.9620530469
 21
273.0846135902
 31
0.0
  0
LINE
  5
5B
330
1F
100
AcDbEntity
  8
0
  6
Continuous
 62
     7
370
    15
100
AcDbLine
 10
381.4384391172
 20
290.6811326767
 30
0.0
 11
382.9257985217
 21
288.2009852702
 31
0.0
  0
LINE
  5
5C
330
1F
100
AcDbEntity
  8
0
  6
Continuous
 62
     7
370
    15
100
AcDbLine
 10
385.4025503261
 20
289.9040948624
 30
0.0
 11
384.0112587077
 21
292.2240585113
 31
0.0
  0
LINE
  5
5D
330
1F
100
AcDbEntity
  8
0
  6
Continuous
 62
     7
370
    15
100
AcDbLine
 10
382.9902907474
 20
271.9082651685
 30
0.0
 11
381.4212133748
 21
269.2918466429
 31
0.0
  0
LINE
  5
5E
330
1F
100
AcDbEntity
  8
0
  6
Continuous
 62
     7
370
    15
100
AcDbLine
 10
383.9940329654
 20
267.7489208082
 30
0.0
 11
385.4025503261
 21
270.0976036514
 31
0.0
  0
LINE
  5
5F
330
1F
100
AcDbEntity
  8
0
  6
Continuous
 62
     7
370
    15
100
AcDbLine
 10
384.0311517579
 20
292.1885499755
 30
0.0
 11
383.9411934478
 21
292.3023371051
 31
0.0
  0
SPLINE
  5
60
330
1F
100
AcDbEntity
  8
0
  6
Continuous
 62
     7
370
    15
100
AcDbSpline
210
0.0
220
0.0
230
1.0
 70
     8
 71
     3
 72
    20
 73
    16
 74
     0
 42
0.00000001
 43
0.00000001
 40
0.0
 40
0.0
 40
0.0
 40
0.0
 40
0.0337795030354787
 40
0.1101057769667599
 40
0.1739290778953664
 40
0.2252747011104207
 40
0.2665371383718143
 40
0.3037733648558273
 40
0.3388589648229627
 40
0.3726389433837576
 40
0.4139176712929965
 40
0.6259828174977032
 40
0.8390272844879489
 40
0.9659462446907114
 40
1.0
 40
1.0
 40
1.0
 40
1.0
 10
383.8288833958707
 20
292.4444066385297
 30
0.0
 10
383.7882280929235
 20
292.5005921924968
 30
0.0
 10
383.6557103435021
 20
292.6837314786893
 30
0.0
 10
383.3458404092826
 20
292.8609046224876
 30
0.0
 10
382.9585664568565
 20
292.9838635490067
 30
0.0
 10
382.5887182115429
 20
292.9986509519957
 30
0.0
 10
382.2544020227913
 20
292.9480628440604
 30
0.0
 10
381.9799258119779
 20
292.8470077720328
 30
0.0
 10
381.7524115107318
 20
292.7123030353548
 30
0.0
 10
381.5463956208901
 20
292.5361134228776
 30
0.0
 10
381.2018263953372
 20
292.0936357925866
 30
0.0
 10
381.0207785152054
 20
291.4069519711574
 30
0.0
 10
380.8709638763062
 20
290.2261206315853
 30
0.0
 10
380.81584614701
 20
289.3214771709494
 30
0.0
 10
380.809284579846
 20
288.9068892431844
 30
0.0
 10
380.807896481236
 20
288.8191832254199
 30
0.0
  0
SPLINE
  5
61
330
1F
100
AcDbEntity
  8
0
  6
Continuous
 62
     7
370
    15
100
AcDbSpline
210
0.0
220
0.0
230
1.0
 70
     8
 71
     3
 72
    19
 73
    15
 74
     0
 42
0.00000001
 43
0.00000001
 40
0.0
 40
0.0
 40
0.0
 40
0.0
 40
0.0102737072591294
 40
0.1295969162292759
 40
0.3268123458649628
 40
0.5525079253641859
 40
0.585853198266546
 40
0.6186007254317911
 40
0.6529065940735373
 40
0.6960059810056629
 40
0.7523135027976446
 40
0.8223141371033088
 40
0.9054608643355189
 40
1.0
 40
1.0
 40
1.0
 40
1.0
 10
380.805050359448
 20
271.2008493045835
 30
0.0
 10
380.8053735417458
 20
271.1736503351966
 30
0.0
 10
380.8094503008076
 20
270.8305509584821
 30
0.0
 10
380.8492381941143
 20
270.0105608061797
 30
0.0
 10
380.9842312790627
 20
268.7881336918426
 30
0.0
 10
381.0746213587453
 20
268.144762968456
 30
0.0
 10
381.4255126007668
 20
267.6046713065369
 30
0.0
 10
381.5947343712571
 20
267.4168228177913
 30
0.0
 10
381.8314526141779
 20
267.2403511640912
 30
0.0
 10
382.1450741432523
 20
267.0868659139533
 30
0.0
 10
382.5485673536453
 20
266.9850865770689
 30
0.0
 10
383.0344205695354
 20
267.008247203416
 30
0.0
 10
383.5641878283733
 20
267.2185708199573
 30
0.0
 10
383.8294070159286
 20
267.5403901972958
 30
0.0
 10
383.9705189330182
 20
267.7116166824965
 30
0.0
  0
LINE
  5
62
330
1F
100
AcDbEntity
  8
0
  6
Continuous
 62
     7
370
    15
100
AcDbLine
 10
698.1025537116
 20
100.0008421043
 30
0.0
 11
698.1025537116
 21
135.0008534292
 31
0.0
  0
LINE
  5
63
330
1F
100
AcDbEntity
  8
0
  6
Continuous
 62
     7
370
    15
100
AcDbLine
 10
698.1025537116
 20
425.0008450846
 30
0.0
 11
698.1025537116
 21
460.0008564095
 31
0.0
  0
LINE
  5
64
330
1F
100
AcDbEntity
  8
0
  6
Continuous
 62
     7
370
    15
100
AcDbLine
 10
695.1025476319
 20
135.0008534292
 30
0.0
 11
695.1025476319
 21
136.0008554558
 31
0.0
  0
LINE
  5
65
330
1F
100
AcDbEntity
  8
0
  6
Continuous
 62
     7
370
    15
100
AcDbLine
 10
695.1025476319
 20
171.0008518795
 30
0.0
 11
695.1025476319
 21
172.0008464555
 31
0.0
  0
LINE
  5
66
330
1F
100
AcDbEntity
  8
0
  6
Continuous
 62
     7
370
    15
100
AcDbLine
 10
690.1025524003
 20
172.0008464555
 30
0.0
 11
690.1025524003
 21
171.0008518795
 31
0.0
  0
LINE
  5
67
330
1F
100
AcDbEntity
  8
0
  6
Continuous
 62
     7
370
    15
100
AcDbLine
 10
690.1025524003
 20
136.0008554558
 30
0.0
 11
690.1025524003
 21
135.0008534292
 31
0.0
  0
LINE
  5
68
330
1F
100
AcDbEntity
  8
0
  6
Continuous
 62
     7
370
    15
100
AcDbLine
 10
690.1025524003
 20
425.0008450846
 30
0.0
 11
690.1025524003
 21
424.000843058
 31
0.0
  0
LINE
  5
69
330
1F
100
AcDbEntity
  8
0
  6
Continuous
 62
     7
370
    15
100
AcDbLine
 10
690.1025524003
 20
389.0008466343
 30
0.0
 11
690.1025524003
 21
388.0008520583
 31
0.0
  0
LINE
  5
6A
330
1F
100
AcDbEntity
  8
0
  6
Continuous
 62
     7
370
    15
100
AcDbLine
 10
695.1025476319
 20
388.0008520583
 30
0.0
 11
695.1025476319
 21
389.0008466343
 31
0.0
  0
LINE
  5
6B
330
1F
100
AcDbEntity
  8
0
  6
Continuous
 62
     7
370
    15
100
AcDbLine
 10
695.1025476319
 20
424.000843058
 30
0.0
 11
695.1025476319
 21
425.0008450846
 31
0.0
  0
LINE
  5
6C
330
1F
100
AcDbEntity
  8
0
  6
Continuous
 62
     7
370
    15
100
AcDbLine
 10
378.3025493486
 20
286.750849432
 30
0.0
 11
378.3025493486
 21
286.4580383549
 31
0.0
  0
LINE
  5
6D
330
1F
100
AcDbEntity
  8
0
  6
Continuous
 62
     7
370
    15
100
AcDbLine
 10
378.3025493486
 20
273.5436601589
 30
0.0
 11
378.3025493486
 21
273.2508490818
 31
0.0
  0
LINE
  5
6E
330
1F
100
AcDbEntity
  8
0
  6
Continuous
 62
     7
370
    15
100
AcDbLine
 10
401.6025414331
 20
95.0008468727
 30
0.0
 11
401.6025414331
 21
465.0008516411
 31
0.0
  0
LINE
  5
6F
330
1F
100
AcDbEntity
  8
0
  6
Continuous
 62
     7
370
    15
100
AcDbLine
 10
386.602540837
 20
95.0008468727
 30
0.0
 11
401.6025414331
 21
95.0008468727
 31
0.0
  0
LINE
  5
70
330
1F
100
AcDbEntity
  8
0
  6
Continuous
 62
     7
370
    15
100
AcDbLine
 10
386.602540837
 20
95.0008468727
 30
0.0
 11
386.602540837
 21
270.0133571426
 31
0.0
  0
LINE
  5
71
330
1F
100
AcDbEntity
  8
0
  6
Continuous
 62
     7
370
    15
100
AcDbLine
 10
386.602540837
 20
289.9883413712
 30
0.0
 11
386.602540837
 21
465.0008516411
 31
0.0
  0
LINE
  5
72
330
1F
100
AcDbEntity
  8
0
  6
Continuous
 62
     7
370
    15
100
AcDbLine
 10
386.602540837
 20
465.0008516411
 30
0.0
 11
401.6025414331
 21
465.0008516411
 31
0.0
  0
ARC
  5
73
330
1F
100
AcDbEntity
  8
0
  6
Continuous
 62
     7
370
    15
100
AcDbCircle
 10
401.6025467975
 20
95.0008492569
 30
0.0
 40
15.0
100
AcDbArc
 50
180.0
 51
270.0
  0
LINE
  5
74
330
1F
100
AcDbEntity
  8
0
  6
Continuous
 62
     7
370
    15
100
AcDbLine
 10
401.6025414331
 20
80.0008462767
 30
0.0
 11
401.6025414331
 21
95.0008468727
 31
0.0
  0
LINE
  5
75
330
1F
100
AcDbEntity
  8
0
  6
Continuous
 62
     7
370
    15
100
AcDbLine
 10
666.6025420291
 20
100.0008421043
 30
0.0
 11
666.6025420291
 21
460.0008564095
 31
0.0
  0
LINE
  5
76
330
1F
100
AcDbEntity
  8
0
  6
Continuous
 62
     7
370
    15
100
AcDbLine
 10
406.6025515658
 20
460.0008564095
 30
0.0
 11
666.6025420291
 21
460.0008564095
 31
0.0
  0
LINE
  5
77
330
1F
100
AcDbEntity
  8
0
  6
Continuous
 62
     7
370
    15
100
AcDbLine
 10
671.6025521619
 20
95.0008468727
 30
0.0
 11
671.6025521619
 21
465.0008516411
 31
0.0
  0
LINE
  5
78
330
1F
100
AcDbEntity
  8
0
  6
Continuous
 62
     7
370
    15
100
AcDbLine
 10
671.6025521619
 20
95.0008468727
 30
0.0
 11
401.6025414331
 21
95.0008468727
 31
0.0
  0
LINE
  5
79
330
1F
100
AcDbEntity
  8
0
  6
Continuous
 62
     7
370
    15
100
AcDbLine
 10
401.6025414331
 20
465.0008516411
 30
0.0
 11
671.6025521619
 21
465.0008516411
 31
0.0
  0
LINE
  5
7A
330
1F
100
AcDbEntity
  8
0
  6
Continuous
 62
     7
370
    15
100
AcDbLine
 10
666.6025420291
 20
100.0008421043
 30
0.0
 11
406.6025515658
 21
100.0008421043
 31
0.0
  0
LINE
  5
7B
330
1F
100
AcDbEntity
  8
0
  6
Continuous
 62
     7
370
    15
100
AcDbLine
 10
406.6025515658
 20
100.0008421043
 30
0.0
 11
406.6025515658
 21
460.0008564095
 31
0.0
  0
LINE
  5
7C
330
1F
100
AcDbEntity
  8
0
  6
Continuous
 62
     7
370
    15
100
AcDbLine
 10
671.6025521619
 20
95.0008468727
 30
0.0
 11
671.6025521619
 21
80.0008462767
 31
0.0
  0
LINE
  5
7D
330
1F
100
AcDbEntity
  8
0
  6
Continuous
 62
     7
370
    15
100
AcDbLine
 10
671.6025521619
 20
80.0008462767
 30
0.0
 11
401.6025414331
 21
80.0008462767
 31
0.0
  0
ARC
  5
7E
330
1F
100
AcDbEntity
  8
0
  6
Continuous
 62
     7
370
    15
100
AcDbCircle
 10
401.6025467975
 20
465.0008492569
 30
0.0
 40
15.0
100
AcDbArc
 50
90.0
 51
180.0
  0
LINE
  5
7F
330
1F
100
AcDbEntity
  8
0
  6
Continuous
 62
     7
370
    15
100
AcDbLine
 10
401.6025414331
 20
465.0008516411
 30
0.0
 11
401.6025414331
 21
480.0008522371
 31
0.0
  0
LINE
  5
80
330
1F
100
AcDbEntity
  8
0
  6
Continuous
 62
     7
370
    15
100
AcDbLine
 10
401.6025414331
 20
480.0008522371
 30
0.0
 11
671.6025521619
 21
480.0008522371
 31
0.0
  0
LINE
  5
81
330
1F
100
AcDbEntity
  8
0
  6
Continuous
 62
     7
370
    15
100
AcDbLine
 10
671.6025521619
 20
480.0008522371
 30
0.0
 11
671.6025521619
 21
465.0008516411
 31
0.0
  0
LINE
  5
82
330
1F
100
AcDbEntity
  8
0
  6
Continuous
 62
     7
370
    15
100
AcDbLine
 10
686.6025527579
 20
95.0008468727
 30
0.0
 11
686.6025527579
 21
465.0008516411
 31
0.0
  0
LINE
  5
83
330
1F
100
AcDbEntity
  8
0
  6
Continuous
 62
     7
370
    15
100
AcDbLine
 10
671.6025521619
 20
95.0008468727
 30
0.0
 11
686.6025527579
 21
95.0008468727
 31
0.0
  0
LINE
  5
84
330
1F
100
AcDbEntity
  8
0
  6
Continuous
 62
     7
370
    15
100
AcDbLine
 10
686.6025527579
 20
465.0008516411
 30
0.0
 11
671.6025521619
 21
465.0008516411
 31
0.0
  0
ARC
  5
85
330
1F
100
AcDbEntity
  8
0
  6
Continuous
 62
     7
370
    15
100
AcDbCircle
 10
671.6025467975
 20
95.0008492569
 30
0.0
 40
15.00000000000001
100
AcDbArc
 50
270.0
 51
0.0
  0
ARC
  5
86
330
1F
100
AcDbEntity
  8
0
  6
Continuous
 62
     7
370
    15
100
AcDbCircle
 10
671.6025467975
 20
465.0008492569
 30
0.0
 40
15.00000000000006
100
AcDbArc
 50
0.0
 51
90.0
  0
LINE
  5
87
330
1F
100
AcDbEntity
  8
0
  6
Continuous
 62
     7
370
    15
100
AcDbLine
 10
385.4025503261
 20
291.0353323469
 30
0.0
 11
386.602540837
 21
291.0353323469
 31
0.0
  0
LINE
  5
88
330
1F
100
AcDbEntity
  8
0
  6
Continuous
 62
     7
370
    15
100
AcDbLine
 10
386.602540837
 20
289.9883413712
 30
0.0
 11
386.602540837
 21
270.0133571426
 31
0.0
  0
LINE
  5
89
330
1F
100
AcDbEntity
  8
0
  6
Continuous
 62
     7
370
    15
100
AcDbLine
 10
385.4025503261
 20
268.9663661669
 30
0.0
 11
386.602540837
 21
268.9663661669
 31
0.0
  0
LINE
  5
8A
330
1F
100
AcDbEntity
  8
0
  6
Continuous
 62
     7
370
    15
100
AcDbLine
 10
385.4025503261
 20
268.9663661669
 30
0.0
 11
385.4025503261
 21
291.0353323469
 31
0.0
  0
LINE
  5
8B
330
1F
100
AcDbEntity
  8
0
  6
Continuous
 62
     7
370
    15
100
AcDbLine
 10
385.3025486333
 20
285.0008491451
 30
0.0
 11
385.3025486333
 21
288.0008496369
 31
0.0
  0
LINE
  5
8C
330
1F
100
AcDbEntity
  8
0
  6
Continuous
 62
     7
370
    15
100
AcDbLine
 10
385.3025486333
 20
282.0008493519
 30
0.0
 11
385.3025486333
 21
285.0008491451
 31
0.0
  0
LINE
  5
8D
330
1F
100
AcDbEntity
  8
0
  6
Continuous
 62
     7
370
    15
100
AcDbLine
 10
385.3025486333
 20
272.0008488769
 30
0.0
 11
385.3025486333
 21
278.0008491619
 31
0.0
  0
LINE
  5
8E
330
1F
100
AcDbEntity
  8
0
  6
Continuous
 62
     7
370
    15
100
AcDbLine
 10
385.4025503261
 20
291.0353323469
 30
0.0
 11
385.4025503261
 21
291.5008492793
 31
0.0
  0
LINE
  5
8F
330
1F
100
AcDbEntity
  8
0
  6
Continuous
 62
     7
370
    15
100
AcDbLine
 10
385.4025503261
 20
268.5008492345
 30
0.0
 11
385.4025503261
 21
268.9663661669
 31
0.0
  0
LINE
  5
90
330
1F
100
AcDbEntity
  8
0
  6
Continuous
 62
     7
370
    15
100
AcDbLine
 10
687.5039090974
 20
389.0008466343
 30
0.0
 11
698.1025537116
 21
389.0008466343
 31
0.0
  0
LINE
  5
91
330
1F
100
AcDbEntity
  8
0
  6
Continuous
 62
     7
370
    15
100
AcDbLine
 10
687.5039090974
 20
424.000843058
 30
0.0
 11
687.5039090974
 21
389.0008466343
 31
0.0
  0
LINE
  5
92
330
1F
100
AcDbEntity
  8
0
  6
Continuous
 62
     7
370
    15
100
AcDbLine
 10
687.5039090974
 20
424.000843058
 30
0.0
 11
698.1025537116
 21
424.000843058
 31
0.0
  0
LINE
  5
93
330
1F
100
AcDbEntity
  8
0
  6
Continuous
 62
     7
370
    15
100
AcDbLine
 10
687.5039090974
 20
171.0008518795
 30
0.0
 11
687.5039090974
 21
136.0008554558
 31
0.0
  0
LINE
  5
94
330
1F
100
AcDbEntity
  8
0
  6
Continuous
 62
     7
370
    15
100
AcDbLine
 10
687.5039090974
 20
171.0008518795
 30
0.0
 11
698.1025537116
 21
171.0008518795
 31
0.0
  0
LINE
  5
95
330
1F
100
AcDbEntity
  8
0
  6
Continuous
 62
     7
370
    15
100
AcDbLine
 10
687.5039090974
 20
136.0008554558
 30
0.0
 11
698.1025537116
 21
136.0008554558
 31
0.0
  0
LINE
  5
96
330
1F
100
AcDbEntity
  8
0
  6
Continuous
 62
     7
370
    15
100
AcDbLine
 10
687.0403935773
 20
424.000843058
 30
0.0
 11
687.0403935773
 21
389.0008466343
 31
0.0
  0
LINE
  5
97
330
1F
100
AcDbEntity
  8
0
  6
Continuous
 62
     7
370
    15
100
AcDbLine
 10
687.0403935773
 20
424.000843058
 30
0.0
 11
687.5039090974
 21
424.000843058
 31
0.0
  0
LINE
  5
98
330
1F
100
AcDbEntity
  8
0
  6
Continuous
 62
     7
370
    15
100
AcDbLine
 10
687.0403935773
 20
389.0008466343
 30
0.0
 11
687.5039090974
 21
389.0008466343
 31
0.0
  0
LINE
  5
99
330
1F
100
AcDbEntity
  8
0
  6
Continuous
 62
     7
370
    15
100
AcDbLine
 10
687.0403935773
 20
171.0008518795
 30
0.0
 11
687.0403935773
 21
136.0008554558
 31
0.0
  0
LINE
  5
9A
330
1F
100
AcDbEntity
  8
0
  6
Continuous
 62
     7
370
    15
100
AcDbLine
 10
687.0403935773
 20
171.0008518795
 30
0.0
 11
687.5039090974
 21
171.0008518795
 31
0.0
  0
LINE
  5
9B
330
1F
100
AcDbEntity
  8
0
  6
Continuous
 62
     7
370
    15
100
AcDbLine
 10
687.0403935773
 20
136.0008554558
 30
0.0
 11
687.5039090974
 21
136.0008554558
 31
0.0
  0
LINE
  5
9C
330
1F
100
AcDbEntity
  8
0
  6
Continuous
 62
     7
370
    15
100
AcDbLine
 10
686.6025527579
 20
171.0008518795
 30
0.0
 11
687.0403935773
 21
171.0008518795
 31
0.0
  0
LINE
  5
9D
330
1F
100
AcDbEntity
  8
0
  6
Continuous
 62
     7
370
    15
100
AcDbLine
 10
686.6025527579
 20
136.0008554558
 30
0.0
 11
687.0403935773
 21
136.0008554558
 31
0.0
  0
LINE
  5
9E
330
1F
100
AcDbEntity
  8
0
  6
Continuous
 62
     7
370
    15
100
AcDbLine
 10
686.6025527579
 20
424.000843058
 30
0.0
 11
687.0403935773
 21
424.000843058
 31
0.0
  0
LINE
  5
9F
330
1F
100
AcDbEntity
  8
0
  6
Continuous
 62
     7
370
    15
100
AcDbLine
 10
686.6025527579
 20
389.0008466343
 30
0.0
 11
687.0403935773
 21
389.0008466343
 31
0.0
  0
LINE
  5
A0
330
1F
100
AcDbEntity
  8
0
  6
Continuous
 62
     7
370
    15
100
AcDbLine
 10
378.5545726878
 20
286.500849391
 30
0.0
 11
379.2850872142
 21
286.500849391
 31
0.0
  0
ARC
  5
A1
330
1F
100
AcDbEntity
  8
0
  6
Continuous
 62
     7
370
    15
100
AcDbCircle
 10
379.4252084871
 20
285.4120413571
 30
0.0
 40
1.097787277143274
100
AcDbArc
 50
97.3332226099
 51
185.8133219334
  0
LINE
  5
A2
330
1F
100
AcDbEntity
  8
0
  6
Continuous
 62
     7
370
    15
100
AcDbLine
 10
378.3330669267
 20
285.3008491012
 30
0.0
 11
377.6025524003
 21
285.3008491012
 31
0.0
  0
ARC
  5
A3
330
1F
100
AcDbEntity
  8
0
  6
Continuous
 62
     7
370
    15
100
AcDbCircle
 10
378.6947012553
 20
285.41203557
 30
0.0
 40
1.097793948007238
100
AcDbArc
 50
97.3335616575
 51
185.8129828859
  0
LINE
  5
A4
330
1F
100
AcDbEntity
  8
0
  6
Continuous
 62
     7
370
    15
100
AcDbLine
 10
379.2850872142
 20
286.500849391
 30
0.0
 11
382.8285237414
 21
286.500849391
 31
0.0
  0
LINE
  5
A5
330
1F
100
AcDbEntity
  8
0
  6
Continuous
 62
     7
370
    15
100
AcDbLine
 10
382.8285237414
 20
286.500849391
 30
0.0
 11
382.8285237414
 21
273.5008491228
 31
0.0
  0
LINE
  5
A6
330
1F
100
AcDbEntity
  8
0
  6
Continuous
 62
     7
370
    15
100
AcDbLine
 10
382.8285237414
 20
273.5008491228
 30
0.0
 11
379.2850872142
 21
273.5008491228
 31
0.0
  0
ARC
  5
A7
330
1F
100
AcDbEntity
  8
0
  6
Continuous
 62
     7
370
    15
100
AcDbCircle
 10
379.4252084871
 20
274.5896571567
 30
0.0
 40
1.097787277143274
100
AcDbArc
 50
174.1866780666
 51
262.6667773901
  0
LINE
  5
A8
330
1F
100
AcDbEntity
  8
0
  6
Continuous
 62
     7
370
    15
100
AcDbLine
 10
378.3330669267
 20
285.3008491012
 30
0.0
 11
378.3330669267
 21
274.7008494126
 31
0.0
  0
LINE
  5
A9
330
1F
100
AcDbEntity
  8
0
  6
Continuous
 62
     7
370
    15
100
AcDbLine
 10
379.2850872142
 20
273.5008491228
 30
0.0
 11
378.5545726878
 21
273.5008491228
 31
0.0
  0
ARC
  5
AA
330
1F
100
AcDbEntity
  8
0
  6
Continuous
 62
     7
370
    15
100
AcDbCircle
 10
378.6947012553
 20
274.5896629438
 30
0.0
 40
1.097793948007137
100
AcDbArc
 50
174.1870171141
 51
262.6664383425
  0
LINE
  5
AB
330
1F
100
AcDbEntity
  8
0
  6
Continuous
 62
     7
370
    15
100
AcDbLine
 10
377.6025524003
 20
274.7008494126
 30
0.0
 11
378.3330669267
 21
274.7008494126
 31
0.0
  0
LINE
  5
AC
330
1F
100
AcDbEntity
  8
0
  6
Continuous
 62
     7
370
    15
100
AcDbLine
 10
377.6025524003
 20
285.3008491012
 30
0.0
 11
377.6025524003
 21
274.7008494126
 31
0.0
  0
LINE
  5
AD
330
1F
100
AcDbEntity
  8
0
  6
Continuous
 62
     7
370
    15
100
AcDbLine
 10
382.9284807307
 20
286.500849391
 30
0.0
 11
382.8285237414
 21
286.500849391
 31
0.0
  0
LINE
  5
AE
330
1F
100
AcDbEntity
  8
0
  6
Continuous
 62
     7
370
    15
100
AcDbLine
 10
382.8285237414
 20
273.5008491228
 30
0.0
 11
382.9620530469
 21
273.5008491228
 31
0.0
  0
LINE
  5
AF
330
1F
100
AcDbEntity
  8
0
  6
Continuous
 62
     7
370
    15
100
AcDbLine
 10
377.6025524003
 20
283.9008491511
 30
0.0
 11
377.4977376325
 21
283.9008491511
 31
0.0
  0
LINE
  5
B0
330
1F
100
AcDbEntity
  8
0
  6
Continuous
 62
     7
370
    15
100
AcDbLine
 10
377.6025524003
 20
275.3008493247
 30
0.0
 11
377.4977376325
 21
275.3008493247
 31
0.0
  0
LINE
  5
B1
330
1F
100
AcDbEntity
  8
0
  6
Continuous
 62
     7
370
    15
100
AcDbLine
 10
382.9284807307
 20
287.2008491332
 30
0.0
 11
378.102545963
 21
287.2008491332
 31
0.0
  0
LINE
  5
B2
330
1F
100
AcDbEntity
  8
0
  6
Continuous
 62
     7
370
    15
100
AcDbLine
 10
382.9310139281
 20
288.0008496369
 30
0.0
 11
378.1031569106
 21
288.0008496369
 31
0.0
  0
LINE
  5
B3
330
1F
100
AcDbEntity
  8
0
  6
Continuous
 62
     7
370
    15
100
AcDbLine
 10
382.9684307439
 20
272.8008493806
 30
0.0
 11
378.102545963
 21
272.8008493806
 31
0.0
  0
LINE
  5
B4
330
1F
100
AcDbEntity
  8
0
  6
Continuous
 62
     7
370
    15
100
AcDbLine
 10
382.9767008884
 20
272.0008488769
 30
0.0
 11
378.1031569106
 21
272.0008488769
 31
0.0
  0
LINE
  5
B5
330
1F
100
AcDbEntity
  8
0
  6
Continuous
 62
     7
370
    15
100
AcDbLine
 10
381.7025472982
 20
288.3008491273
 30
0.0
 11
382.8659107549
 21
288.3008491273
 31
0.0
  0
LINE
  5
B6
330
1F
100
AcDbEntity
  8
0
  6
Continuous
 62
     7
370
    15
100
AcDbLine
 10
383.0290635688
 20
288.3008491273
 30
0.0
 11
383.0913951261
 21
288.3008491273
 31
0.0
  0
LINE
  5
B7
330
1F
100
AcDbEntity
  8
0
  6
Continuous
 62
     7
370
    15
100
AcDbLine
 10
379.5025398595
 20
288.3008491273
 30
0.0
 11
381.7025472982
 21
288.3008491273
 31
0.0
  0
LINE
  5
B8
330
1F
100
AcDbEntity
  8
0
  6
Continuous
 62
     7
370
    15
100
AcDbLine
 10
381.7025472982
 20
271.2008493046
 30
0.0
 11
382.5660546882
 21
271.2008493046
 31
0.0
  0
LINE
  5
B9
330
1F
100
AcDbEntity
  8
0
  6
Continuous
 62
     7
370
    15
100
AcDbLine
 10
379.6025415523
 20
271.2008493046
 30
0.0
 11
381.7025472982
 21
271.2008493046
 31
0.0
  0
LINE
  5
BA
330
1F
100
AcDbEntity
  8
0
  6
Continuous
 62
     7
370
    15
100
AcDbLine
 10
381.7025472982
 20
271.6008495564
 30
0.0
 11
382.8059335811
 21
271.6008495564
 31
0.0
  0
LINE
  5
BB
330
1F
100
AcDbEntity
  8
0
  6
Continuous
 62
     7
370
    15
100
AcDbLine
 10
379.6025415523
 20
271.6008495564
 30
0.0
 11
381.7025472982
 21
271.6008495564
 31
0.0
  0
ARC
  5
BC
330
1F
100
AcDbEntity
  8
0
  6
Continuous
 62
     7
370
    15
100
AcDbCircle
 10
378.5683324351
 20
287.20308562
 30
0.0
 40
0.8027495456830569
100
AcDbArc
 50
125.4673437335
 51
180.1596281405
  0
ARC
  5
BD
330
1F
100
AcDbEntity
  8
0
  6
Continuous
 62
     7
370
    15
100
AcDbCircle
 10
378.5683324351
 20
272.7986128938
 30
0.0
 40
0.8027495456831032
100
AcDbArc
 50
179.8403718595
 51
234.5326562665
  0
LINE
  5
BE
330
1F
100
AcDbEntity
  8
0
  6
Continuous
 62
     7
370
    15
100
AcDbLine
 10
378.5534401996
 20
273.2508490818
 30
0.0
 11
378.5534401996
 21
272.8008493806
 31
0.0
  0
LINE
  5
BF
330
1F
100
AcDbEntity
  8
0
  6
Continuous
 62
     7
370
    15
100
AcDbLine
 10
378.5534401996
 20
287.2008491332
 30
0.0
 11
378.5534401996
 21
286.750849432
 31
0.0
  0
LINE
  5
C0
330
1F
100
AcDbEntity
  8
0
  6
Continuous
 62
     7
370
    15
100
AcDbLine
 10
377.7655860049
 20
272.8008493806
 30
0.0
 11
377.7655860049
 21
274.0292913305
 31
0.0
  0
LINE
  5
C1
330
1F
100
AcDbEntity
  8
0
  6
Continuous
 62
     7
370
    15
100
AcDbLine
 10
377.7655860049
 20
285.9724071833
 30
0.0
 11
377.7655860049
 21
287.2008491332
 31
0.0
  0
SPLINE
  5
C2
330
1F
100
AcDbEntity
  8
0
  6
Continuous
 62
     7
370
    15
100
AcDbSpline
210
0.0
220
0.0
230
1.0
 70
    24
 71
     3
 72
    12
 73
     8
 74
     0
 42
0.00000001
 43
0.00000001
 40
0.0
 40
0.0
 40
0.0
 40
0.0
 40
0.2185051145832685
 40
0.4370116439504236
 40
0.6555200999493015
 40
0.8740268718084363
 40
1.0
 40
1.0
 40
1.0
 40
1.0
 10
384.7618898017011
 20
286.6932443367807
 30
0.0
 10
384.565169713259
 20
286.6932443367807
 30
0.0
 10
384.1717282626454
 20
286.6932443367807
 30
0.0
 10
383.6109775736138
 20
286.6932443367807
 30
0.0
 10
383.1933046827309
 20
286.6932443367807
 30
0.0
 10
382.966741301506
 20
286.6932443367807
 30
0.0
 10
382.9842686042845
 20
286.6932443367807
 30
0.0
 10
382.9906781775556
 20
286.6932443367807
 30
0.0
  0
SPLINE
  5
C3
330
1F
100
AcDbEntity
  8
0
  6
Continuous
 62
     7
370
    15
100
AcDbSpline
210
0.0
220
0.0
230
1.0
 70
    24
 71
     3
 72
     9
 73
     5
 74
     0
 42
0.00000001
 43
0.00000001
 40
0.0
 40
0.0
 40
0.0
 40
0.0
 40
0.1970130322720919
 40
1.0
 40
1.0
 40
1.0
 40
1.0
 10
385.4025503260694
 20
286.6932443367807
 30
0.0
 10
385.3698981301449
 20
286.6932443367807
 30
0.0
 10
385.2041619067693
 20
286.6932443367807
 30
0.0
 10
384.9588622385052
 20
286.6932443367807
 30
0.0
 10
384.7618898017011
 20
286.6932443367807
 30
0.0
  0
SPLINE
  5
C4
330
1F
100
AcDbEntity
  8
0
  6
Continuous
 62
     7
370
    15
100
AcDbSpline
210
0.0
220
0.0
230
1.0
 70
     8
 71
     3
 72
    13
 73
     9
 74
     0
 42
0.00000001
 43
0.00000001
 40
0.0
 40
0.0
 40
0.0
 40
0.0
 40
0.1877344190872338
 40
0.3754728485412139
 40
0.5632112624932787
 40
0.7509477462650653
 40
0.9386852589542094
 40
1.0
 40
1.0
 40
1.0
 40
1.0
 10
384.4686051470838
 20
290.3080830375222
 30
0.0
 10
384.2719135594373
 20
290.3053827547894
 30
0.0
 10
383.8785261824351
 20
290.2999821316407
 30
0.0
 10
383.3455081829095
 20
290.0094499306562
 30
0.0
 10
382.9549811909702
 20
289.5545473707501
 30
0.0
 10
382.7820400367886
 20
288.9928636227603
 30
0.0
 10
382.7853092615267
 20
288.5196702735632
 30
0.0
 10
382.9126440084501
 20
288.2982369695113
 30
0.0
 10
382.9439928395353
 20
288.2437218005327
 30
0.0
  0
SPLINE
  5
C5
330
1F
100
AcDbEntity
  8
0
  6
Continuous
 62
     7
370
    15
100
AcDbSpline
210
0.0
220
0.0
230
1.0
 70
     8
 71
     3
 72
    10
 73
     6
 74
     0
 42
0.00000001
 43
0.00000001
 40
0.0
 40
0.0
 40
0.0
 40
0.0
 40
0.2093438294506487
 40
0.604669948165697
 40
1.0
 40
1.0
 40
1.0
 40
1.0
 10
385.6057872635923
 20
289.5019684011606
 30
0.0
 10
385.5640793588761
 20
289.5950317723255
 30
0.0
 10
385.443610001604
 20
289.8638365609168
 30
0.0
 10
385.0369119296461
 20
290.1805014634939
 30
0.0
 10
384.6580413695017
 20
290.2655557051453
 30
0.0
 10
384.4686051470838
 20
290.3080830375222
 30
0.0
  0
SPLINE
  5
C6
330
1F
100
AcDbEntity
  8
0
  6
Continuous
 62
     7
370
    15
100
AcDbSpline
210
0.0
220
0.0
230
1.0
 70
     8
 71
     3
 72
    13
 73
     9
 74
     0
 42
0.00000001
 43
0.00000001
 40
0.0
 40
0.0
 40
0.0
 40
0.0
 40
0.1768614626580366
 40
0.3537266438978727
 40
0.530591680287995
 40
0.7074549205632471
 40
0.884319107889526
 40
1.0
 40
1.0
 40
1.0
 40
1.0
 10
384.4513794047437
 20
269.6648962820439
 30
0.0
 10
384.2547123269184
 20
269.6675870189435
 30
0.0
 10
383.8613740362651
 20
269.6729685493167
 30
0.0
 10
383.3279886205499
 20
269.9636437575535
 30
0.0
 10
382.9388579611128
 20
270.4180080500548
 30
0.0
 10
382.7606981204612
 20
270.981702511554
 30
0.0
 10
382.7816598781981
 20
271.5148535061218
 30
0.0
 10
382.94775383559
 20
271.7881233069386
 30
0.0
 10
383.0134322506986
 20
271.896182189372
 30
0.0
  0
SPLINE
  5
C7
330
1F
100
AcDbEntity
  8
0
  6
Continuous
 62
     7
370
    15
100
AcDbSpline
210
0.0
220
0.0
230
1.0
 70
     8
 71
     3
 72
    10
 73
     6
 74
     0
 42
0.00000001
 43
0.00000001
 40
0.0
 40
0.0
 40
0.0
 40
0.0
 40
0.0588212342684354
 40
0.5294130460425892
 40
1.0
 40
1.0
 40
1.0
 40
1.0
 10
385.4814966780744
 20
270.2648058558373
 30
0.0
 10
385.4708621457696
 20
270.2433255177603
 30
0.0
 10
385.375147388832
 20
270.0499944638849
 30
0.0
 10
385.0142607133005
 20
269.7958266760264
 30
0.0
 10
384.6390058619803
 20
269.7085395965297
 30
0.0
 10
384.4513794047437
 20
269.6648962820439
 30
0.0
  0
SPLINE
  5
C8
330
1F
100
AcDbEntity
  8
0
  6
Continuous
 62
     7
370
    15
100
AcDbSpline
210
0.0
220
0.0
230
1.0
 70
    24
 71
     3
 72
    12
 73
     8
 74
     0
 42
0.00000001
 43
0.00000001
 40
0.0
 40
0.0
 40
0.0
 40
0.0
 40
0.2193538622243088
 40
0.4387091447280026
 40
0.6580663613471072
 40
0.8774218872847014
 40
1.0
 40
1.0
 40
1.0
 40
1.0
 10
384.7618898017011
 20
273.1346135052411
 30
0.0
 10
384.565174393843
 20
273.1346135052411
 30
0.0
 10
384.1717423044275
 20
273.1346135052411
 30
0.0
 10
383.6109214058546
 20
273.1346135052411
 30
0.0
 10
383.1935153131708
 20
273.1346135052411
 30
0.0
 10
382.9676586986122
 20
273.1346135052411
 30
0.0
 10
382.9846475369029
 20
273.1346135052411
 30
0.0
 10
382.9907377822004
 20
273.1346135052411
 30
0.0
  0
SPLINE
  5
C9
330
1F
100
AcDbEntity
  8
0
  6
Continuous
 62
     7
370
    15
100
AcDbSpline
210
0.0
220
0.0
230
1.0
 70
    24
 71
     3
 72
     9
 73
     5
 74
     0
 42
0.00000001
 43
0.00000001
 40
0.0
 40
0.0
 40
0.0
 40
0.0
 40
0.1970130322720919
 40
1.0
 40
1.0
 40
1.0
 40
1.0
 10
385.4025503260694
 20
273.1346135052411
 30
0.0
 10
385.3698981301449
 20
273.1346135052411
 30
0.0
 10
385.2041619067693
 20
273.1346135052411
 30
0.0
 10
384.9588622385052
 20
273.1346135052411
 30
0.0
 10
384.7618898017011
 20
273.1346135052411
 30
0.0
  0
SPLINE
  5
CA
330
1F
100
AcDbEntity
  8
0
  6
Continuous
 62
     7
370
    15
100
AcDbSpline
210
0.0
220
0.0
230
1.0
 70
     8
 71
     3
 72
    13
 73
     9
 74
     0
 42
0.00000001
 43
0.00000001
 40
0.0
 40
0.0
 40
0.0
 40
0.0
 40
0.1768615033144454
 40
0.3537265688979725
 40
0.5305918600777433
 40
0.7074548533138182
 40
0.8843190812971323
 40
1.0
 40
1.0
 40
1.0
 40
1.0
 10
382.8995277745328
 20
292.9245015630988
 30
0.0
 10
382.702860760258
 20
292.9218107526694
 30
0.0
 10
382.3095227705253
 20
292.9164290776133
 30
0.0
 10
381.7761363183808
 20
292.6257550655603
 30
0.0
 10
381.3870069251543
 20
292.1713903841446
 30
0.0
 10
381.2088462947849
 20
291.6076947465846
 30
0.0
 10
381.2298082796754
 20
291.0745443786082
 30
0.0
 10
381.3959022143587
 20
290.8012745494221
 30
0.0
 10
381.4615806204877
 20
290.6932156557707
 30
0.0
  0
SPLINE
  5
CB
330
1F
100
AcDbEntity
  8
0
  6
Continuous
 62
     7
370
    15
100
AcDbSpline
210
0.0
220
0.0
230
1.0
 70
     8
 71
     3
 72
    10
 73
     6
 74
     0
 42
0.00000001
 43
0.00000001
 40
0.0
 40
0.0
 40
0.0
 40
0.0
 40
0.1474573734895173
 40
0.573730886909061
 40
1.0
 40
1.0
 40
1.0
 40
1.0
 10
383.9881172043882
 20
292.2119755322603
 30
0.0
 10
383.960060657525
 20
292.2722698881573
 30
0.0
 10
383.8508975337388
 20
292.5068646965802
 30
0.0
 10
383.465817601921
 20
292.7956721560429
 30
0.0
 10
383.0882904008037
 20
292.8815585751788
 30
0.0
 10
382.8995277745328
 20
292.9245015630988
 30
0.0
  0
SPLINE
  5
CC
330
1F
100
AcDbEntity
  8
0
  6
Continuous
 62
     7
370
    15
100
AcDbSpline
210
0.0
220
0.0
230
1.0
 70
     8
 71
     3
 72
    13
 73
     9
 74
     0
 42
0.00000001
 43
0.00000001
 40
0.0
 40
0.0
 40
0.0
 40
0.0
 40
0.1768653836687103
 40
0.3537300190614872
 40
0.5305916012776648
 40
0.7074553904964731
 40
0.8843190319787603
 40
1.0
 40
1.0
 40
1.0
 40
1.0
 10
382.8823169333539
 20
267.0484777564673
 30
0.0
 10
382.6856451533973
 20
267.0511680627075
 30
0.0
 10
382.292302425556
 20
267.0565486638058
 30
0.0
 10
381.7589093242808
 20
267.3472202758519
 30
0.0
 10
381.3698017739593
 20
267.8015973964424
 30
0.0
 10
381.1916148573682
 20
268.3652806836971
 30
0.0
 10
381.2125837517124
 20
268.898436267378
 30
0.0
 10
381.3786767096507
 20
269.1717049708099
 30
0.0
 10
381.4443548781476
 20
269.2797636637954
 30
0.0
  0
SPLINE
  5
CD
330
1F
100
AcDbEntity
  8
0
  6
Continuous
 62
     7
370
    15
100
AcDbSpline
210
0.0
220
0.0
230
1.0
 70
     8
 71
     3
 72
    10
 73
     6
 74
     0
 42
0.00000001
 43
0.00000001
 40
0.0
 40
0.0
 40
0.0
 40
0.0
 40
0.147459893261942
 40
0.5737376743044033
 40
1.0
 40
1.0
 40
1.0
 40
1.0
 10
383.9708914620481
 20
267.7610037873058
 30
0.0
 10
383.9428349752511
 20
267.7007094625047
 30
0.0
 10
383.8336726591254
 20
267.4661160085158
 30
0.0
 10
383.4485959844642
 20
267.1773106022199
 30
0.0
 10
383.0710743357462
 20
267.0914215193689
 30
0.0
 10
382.8823169333539
 20
267.0484777564673
 30
0.0
  0
LINE
  5
CE
330
1F
100
AcDbEntity
  8
0
  6
Continuous
 62
     7
370
    15
100
AcDbLine
 10
687.5039090974
 20
135.0008534292
 30
0.0
 11
687.5039090974
 21
100.0008421043
 31
0.0
  0
LINE
  5
CF
330
1F
100
AcDbEntity
  8
0
  6
Continuous
 62
     7
370
    15
100
AcDbLine
 10
698.1025537116
 20
135.0008534292
 30
0.0
 11
687.5039090974
 21
135.0008534292
 31
0.0
  0
LINE
  5
D0
330
1F
100
AcDbEntity
  8
0
  6
Continuous
 62
     7
370
    15
100
AcDbLine
 10
698.1025537116
 20
100.0008421043
 30
0.0
 11
687.5039090974
 21
100.0008421043
 31
0.0
  0
LINE
  5
D1
330
1F
100
AcDbEntity
  8
0
  6
Continuous
 62
     7
370
    15
100
AcDbLine
 10
687.5039090974
 20
460.0008564095
 30
0.0
 11
687.5039090974
 21
425.0008450846
 31
0.0
  0
LINE
  5
D2
330
1F
100
AcDbEntity
  8
0
  6
Continuous
 62
     7
370
    15
100
AcDbLine
 10
698.1025537116
 20
460.0008564095
 30
0.0
 11
687.5039090974
 21
460.0008564095
 31
0.0
  0
LINE
  5
D3
330
1F
100
AcDbEntity
  8
0
  6
Continuous
 62
     7
370
    15
100
AcDbLine
 10
698.1025537116
 20
425.0008450846
 30
0.0
 11
687.5039090974
 21
425.0008450846
 31
0.0
  0
LINE
  5
D4
330
1F
100
AcDbEntity
  8
0
  6
Continuous
 62
     7
370
    15
100
AcDbLine
 10
695.1025476319
 20
172.0008464555
 30
0.0
 11
690.1025524003
 21
172.0008464555
 31
0.0
  0
LINE
  5
D5
330
1F
100
AcDbEntity
  8
0
  6
Continuous
 62
     7
370
    15
100
AcDbLine
 10
690.1025524003
 20
388.0008520583
 30
0.0
 11
695.1025476319
 21
388.0008520583
 31
0.0
  0
LINE
  5
D6
330
1F
100
AcDbEntity
  8
0
  6
Continuous
 62
     7
370
    15
100
AcDbLine
 10
687.0403935773
 20
100.0008421043
 30
0.0
 11
687.0403935773
 21
135.0008534292
 31
0.0
  0
LINE
  5
D7
330
1F
100
AcDbEntity
  8
0
  6
Continuous
 62
     7
370
    15
100
AcDbLine
 10
687.0403935773
 20
135.0008534292
 30
0.0
 11
687.5039090974
 21
135.0008534292
 31
0.0
  0
LINE
  5
D8
330
1F
100
AcDbEntity
  8
0
  6
Continuous
 62
     7
370
    15
100
AcDbLine
 10
687.5039090974
 20
100.0008421043
 30
0.0
 11
687.0403935773
 21
100.0008421043
 31
0.0
  0
LINE
  5
D9
330
1F
100
AcDbEntity
  8
0
  6
Continuous
 62
     7
370
    15
100
AcDbLine
 10
687.0403935773
 20
425.0008450846
 30
0.0
 11
687.0403935773
 21
460.0008564095
 31
0.0
  0
LINE
  5
DA
330
1F
100
AcDbEntity
  8
0
  6
Continuous
 62
     7
370
    15
100
AcDbLine
 10
687.0403935773
 20
460.0008564095
 30
0.0
 11
687.5039090974
 21
460.0008564095
 31
0.0
  0
LINE
  5
DB
330
1F
100
AcDbEntity
  8
0
  6
Continuous
 62
     7
370
    15
100
AcDbLine
 10
687.5039090974
 20
425.0008450846
 30
0.0
 11
687.0403935773
 21
425.0008450846
 31
0.0
  0
LINE
  5
DC
330
1F
100
AcDbEntity
  8
0
  6
Continuous
 62
     7
370
    15
100
AcDbLine
 10
687.0403935773
 20
460.0008564095
 30
0.0
 11
686.6025527579
 21
460.0008564095
 31
0.0
  0
LINE
  5
DD
330
1F
100
AcDbEntity
  8
0
  6
Continuous
 62
     7
370
    15
100
AcDbLine
 10
687.0403935773
 20
425.0008450846
 30
0.0
 11
686.6025527579
 21
425.0008450846
 31
0.0
  0
LINE
  5
DE
330
1F
100
AcDbEntity
  8
0
  6
Continuous
 62
     7
370
    15
100
AcDbLine
 10
687.0403935773
 20
135.0008534292
 30
0.0
 11
686.6025527579
 21
135.0008534292
 31
0.0
  0
LINE
  5
DF
330
1F
100
AcDbEntity
  8
0
  6
Continuous
 62
     7
370
    15
100
AcDbLine
 10
687.0403935773
 20
100.0008421043
 30
0.0
 11
686.6025527579
 21
100.0008421043
 31
0.0
  0
LINE
  5
E0
330
1F
100
AcDbEntity
  8
0
  6
Continuous
 62
     7
370
    15
100
AcDbLine
 10
381.4025422198
 20
286.750849432
 30
0.0
 11
378.3025493486
 21
286.750849432
 31
0.0
  0
LINE
  5
E1
330
1F
100
AcDbEntity
  8
0
  6
Continuous
 62
     7
370
    15
100
AcDbLine
 10
381.4025422198
 20
273.2508490818
 30
0.0
 11
378.3025493486
 21
273.2508490818
 31
0.0
  0
LINE
  5
E2
330
1F
100
AcDbEntity
  8
0
  6
Continuous
 62
     7
370
    15
100
AcDbLine
 10
381.4025422198
 20
273.2508490818
 30
0.0
 11
382.9620530469
 21
273.2508490818
 31
0.0
  0
LINE
  5
E3
330
1F
100
AcDbEntity
  8
0
  6
Continuous
 62
     7
370
    15
100
AcDbLine
 10
381.4025422198
 20
286.750849432
 30
0.0
 11
382.962619291
 21
286.750849432
 31
0.0
  0
LINE
  5
E4
330
1F
100
AcDbEntity
  8
0
  6
Continuous
 62
     8
370
    15
100
AcDbLine
 10
381.4025422198
 20
286.750849432
 30
0.0
 11
381.4025422198
 21
286.500849391
 31
0.0
  0
LINE
  5
E5
330
1F
100
AcDbEntity
  8
0
  6
Continuous
 62
     8
370
    15
100
AcDbLine
 10
381.4025422198
 20
273.5008491228
 30
0.0
 11
381.4025422198
 21
273.2508490818
 31
0.0
  0
LINE
  5
E6
330
1F
100
AcDbEntity
  8
0
  6
Continuous
 62
     7
370
    15
100
AcDbLine
 10
231.9360909029
 20
286.500849391
 30
0.0
 11
231.9360909029
 21
273.5008491228
 31
0.0
  0
LINE
  5
E7
330
1F
100
AcDbEntity
  8
0
  6
Continuous
 62
     7
370
    15
100
AcDbLine
 10
222.1460950538
 20
287.2008491332
 30
0.0
 11
222.1460950538
 21
288.0008496369
 31
0.0
  0
LINE
  5
E8
330
1F
100
AcDbEntity
  8
0
  6
Continuous
 62
     7
370
    15
100
AcDbLine
 10
222.1460950538
 20
272.0008488769
 30
0.0
 11
222.1460950538
 21
272.8008493806
 31
0.0
  0
ARC
  5
E9
330
1F
100
AcDbEntity
  8
0
  6
Continuous
 62
     7
370
    15
100
AcDbCircle
 10
219.4160934183
 20
285.1937063998
 30
0.0
 40
3.807142857143142
100
AcDbArc
 50
54.6997515601
 51
125.3002484399
  0
LINE
  5
EA
330
1F
100
AcDbEntity
  8
0
  6
Continuous
 62
     7
370
    15
100
AcDbLine
 10
217.2160905763
 20
288.3008491273
 30
0.0
 11
217.2160905763
 21
288.0008496369
 31
0.0
  0
LINE
  5
EB
330
1F
100
AcDbEntity
  8
0
  6
Continuous
 62
     7
370
    15
100
AcDbLine
 10
221.6160905525
 20
288.0008496369
 30
0.0
 11
221.6160905525
 21
288.3008491273
 31
0.0
  0
LINE
  5
EC
330
1F
100
AcDbEntity
  8
0
  6
Continuous
 62
     7
370
    15
100
AcDbLine
 10
217.3160922691
 20
271.6008495564
 30
0.0
 11
217.3160922691
 21
271.2008493046
 31
0.0
  0
LINE
  5
ED
330
1F
100
AcDbEntity
  8
0
  6
Continuous
 62
     7
370
    15
100
AcDbLine
 10
221.5160963103
 20
271.2008493046
 30
0.0
 11
221.5160963103
 21
271.6008495564
 31
0.0
  0
ARC
  5
EE
330
1F
100
AcDbEntity
  8
0
  6
Continuous
 62
     7
370
    15
100
AcDbCircle
 10
217.5160934183
 20
272.0008492569
 30
0.0
 40
0.4000000000008015
100
AcDbArc
 50
270.0
 51
0.0
  0
ARC
  5
EF
330
1F
100
AcDbEntity
  8
0
  6
Continuous
 62
     7
370
    15
100
AcDbCircle
 10
221.3160934183
 20
272.0008492569
 30
0.0
 40
0.4000000000007731
100
AcDbArc
 50
180.0
 51
270.0
  0
LINE
  5
F0
330
1F
100
AcDbEntity
  8
0
  6
Continuous
 62
     7
370
    15
100
AcDbLine
 10
217.9160949751
 20
287.2008491332
 30
0.0
 11
217.9160949751
 21
286.750849432
 31
0.0
  0
LINE
  5
F1
330
1F
100
AcDbEntity
  8
0
  6
Continuous
 62
     7
370
    15
100
AcDbLine
 10
217.9160949751
 20
285.7508492681
 30
0.0
 11
217.9160949751
 21
285.262144732
 31
0.0
  0
LINE
  5
F2
330
1F
100
AcDbEntity
  8
0
  6
Continuous
 62
     7
370
    15
100
AcDbLine
 10
217.9160949751
 20
284.4660301717
 30
0.0
 11
217.9160949751
 21
284.3103330607
 31
0.0
  0
LINE
  5
F3
330
1F
100
AcDbEntity
  8
0
  6
Continuous
 62
     7
370
    15
100
AcDbLine
 10
217.9160949751
 20
275.0112224395
 30
0.0
 11
217.9160949751
 21
274.2508492457
 31
0.0
  0
LINE
  5
F4
330
1F
100
AcDbEntity
  8
0
  6
Continuous
 62
     7
370
    15
100
AcDbLine
 10
217.9160949751
 20
273.2508490818
 30
0.0
 11
217.9160949751
 21
272.8008493806
 31
0.0
  0
LINE
  5
F5
330
1F
100
AcDbEntity
  8
0
  6
Continuous
 62
     7
370
    15
100
AcDbLine
 10
220.9160936042
 20
272.8008493806
 30
0.0
 11
220.9160936042
 21
273.2508490818
 31
0.0
  0
LINE
  5
F6
330
1F
100
AcDbEntity
  8
0
  6
Continuous
 62
     7
370
    15
100
AcDbLine
 10
220.9160936042
 20
274.2508492457
 30
0.0
 11
220.9160936042
 21
274.7379914882
 31
0.0
  0
LINE
  5
F7
330
1F
100
AcDbEntity
  8
0
  6
Continuous
 62
     7
370
    15
100
AcDbLine
 10
220.9160936042
 20
284.0459086957
 30
0.0
 11
220.9160936042
 21
284.2338472629
 31
0.0
  0
LINE
  5
F8
330
1F
100
AcDbEntity
  8
0
  6
Continuous
 62
     7
370
    15
100
AcDbLine
 10
220.9160936042
 20
284.9889263535
 30
0.0
 11
220.9160936042
 21
285.7508492681
 31
0.0
  0
LINE
  5
F9
330
1F
100
AcDbEntity
  8
0
  6
Continuous
 62
     7
370
    15
100
AcDbLine
 10
220.9160936042
 20
286.750849432
 30
0.0
 11
220.9160936042
 21
287.2008491332
 31
0.0
  0
SPLINE
  5
FA
330
1F
100
AcDbEntity
  8
0
  6
Continuous
 62
     7
370
    15
100
AcDbSpline
210
0.0
220
0.0
230
1.0
 70
     8
 71
     3
 72
    15
 73
    11
 74
     0
 42
0.00000001
 43
0.00000001
 40
0.0
 40
0.0
 40
0.0
 40
0.0
 40
0.1356028663338301
 40
0.2953315886943306
 40
0.4038095484465317
 40
0.5319635813589845
 40
0.6738457581954921
 40
0.8261073253668793
 40
0.9126171788294358
 40
1.0
 40
1.0
 40
1.0
 40
1.0
 10
220.9160936042254
 20
274.5668944927422
 30
0.0
 10
220.960475077581
 20
274.5595713795092
 30
0.0
 10
221.0571341777095
 20
274.5436222574606
 30
0.0
 10
221.2639853072272
 20
274.5912882577364
 30
0.0
 10
221.457245682453
 20
274.679019154033
 30
0.0
 10
221.6038341790749
 20
274.7986786966822
 30
0.0
 10
221.7025368186017
 20
274.9495682969073
 30
0.0
 10
221.7322041844807
 20
275.0714222991762
 30
0.0
 10
221.7110151948532
 20
275.2006649072536
 30
0.0
 10
221.6647620535853
 20
275.2673429409235
 30
0.0
 10
221.6415193840449
 20
275.3008493247
 30
0.0
  0
SPLINE
  5
FB
330
1F
100
AcDbEntity
  8
0
  6
Continuous
 62
     7
370
    15
100
AcDbSpline
210
0.0
220
0.0
230
1.0
 70
     8
 71
     3
 72
    20
 73
    16
 74
     0
 42
0.00000001
 43
0.00000001
 40
0.0
 40
0.0
 40
0.0
 40
0.0
 40
0.0607086214852914
 40
0.2265341895458336
 40
0.390803581223065
 40
0.4705950241619049
 40
0.5476206230061507
 40
0.6228561628181747
 40
0.7003374888932409
 40
0.7786476390016884
 40
0.8566581059630805
 40
0.9331014492745098
 40
0.9703731458204543
 40
0.9892352107449414
 40
1.0
 40
1.0
 40
1.0
 40
1.0
 10
217.1798956557696
 20
275.3008493247
 30
0.0
 10
217.2261702167133
 20
275.2475159272085
 30
0.0
 10
217.3988437168436
 20
275.0485023821651
 30
0.0
 10
217.81581713016
 20
275.0305756291513
 30
0.0
 10
218.3807715834837
 20
274.9555526663558
 30
0.0
 10
218.9003843007354
 20
274.9126104835952
 30
0.0
 10
219.2942753685253
 20
274.8820599221251
 30
0.0
 10
219.6871858069378
 20
274.8543764357263
 30
0.0
 10
220.068347814365
 20
274.823069931333
 30
0.0
 10
220.4240740569516
 20
274.7905969898769
 30
0.0
 10
220.7267004578158
 20
274.7597710435082
 30
0.0
 10
220.9192126934426
 20
274.7368689934968
 30
0.0
 10
221.0073210258099
 20
274.7288411740694
 30
0.0
 10
221.0527583774001
 20
274.7210467407894
 30
0.0
 10
221.0522018549264
 20
274.7250055891814
 30
0.0
 10
221.0519996448939
 20
274.7264440196125
 30
0.0
  0
SPLINE
  5
FC
330
1F
100
AcDbEntity
  8
0
  6
Continuous
 62
     7
370
    15
100
AcDbSpline
210
0.0
220
0.0
230
1.0
 70
     8
 71
     3
 72
    18
 73
    14
 74
     0
 42
0.00000001
 43
0.00000001
 40
0.0
 40
0.0
 40
0.0
 40
0.0
 40
0.0057536129122021
 40
0.1156389023353307
 40
0.2383936358241066
 40
0.3593077623635511
 40
0.4757041881704016
 40
0.5872127586402517
 40
0.7047314396689262
 40
0.8265009696926193
 40
0.8891454136453518
 40
0.9517929294910257
 40
1.0
 40
1.0
 40
1.0
 40
1.0
 10
221.4227107330745
 20
283.9476732561855
 30
0.0
 10
221.4180635738113
 20
283.9506267330771
 30
0.0
 10
221.3246627134524
 20
284.0099871438371
 30
0.0
 10
221.1022914407891
 20
284.0161696342253
 30
0.0
 10
220.7109241185726
 20
284.0753668993518
 30
0.0
 10
220.1990326382565
 20
284.1209135797337
 30
0.0
 10
219.6480080008289
 20
284.1670652091421
 30
0.0
 10
219.0858914966704
 20
284.2059613625709
 30
0.0
 10
218.5516119924043
 20
284.2506914419261
 30
0.0
 10
218.1539772680642
 20
284.2917618557765
 30
0.0
 10
217.9392485561503
 20
284.3128832191252
 30
0.0
 10
217.8431814619527
 20
284.3151722552011
 30
0.0
 10
217.827745581809
 20
284.2990971535239
 30
0.0
 10
217.8210330172961
 20
284.2921066122619
 30
0.0
  0
SPLINE
  5
FD
330
1F
100
AcDbEntity
  8
0
  6
Continuous
 62
     7
370
    15
100
AcDbSpline
210
0.0
220
0.0
230
1.0
 70
     8
 71
     3
 72
    12
 73
     8
 74
     0
 42
0.00000001
 43
0.00000001
 40
0.0
 40
0.0
 40
0.0
 40
0.0
 40
0.2236729820054967
 40
0.4523097742282867
 40
0.6822372678484837
 40
0.9102273613192214
 40
1.0
 40
1.0
 40
1.0
 40
1.0
 10
217.1217960282748
 20
285.1026999788849
 30
0.0
 10
217.1090606092525
 20
285.0601520512358
 30
0.0
 10
217.0833071434066
 20
284.9741119610279
 30
0.0
 10
217.204430148392
 20
284.8824969091441
 30
0.0
 10
217.4361114510553
 20
284.7861915461445
 30
0.0
 10
217.6809678910721
 20
284.7237004878035
 30
0.0
 10
217.8643007499628
 20
284.7289206307349
 30
0.0
 10
217.9160949751323
 20
284.7303953977791
 30
0.0
  0
SPLINE
  5
FE
330
1F
100
AcDbEntity
  8
0
  6
Continuous
 62
     7
370
    15
100
AcDbSpline
210
0.0
220
0.0
230
1.0
 70
     8
 71
     3
 72
    19
 73
    15
 74
     0
 42
0.00000001
 43
0.00000001
 40
0.0
 40
0.0
 40
0.0
 40
0.0
 40
0.0979033736757284
 40
0.1753767752232956
 40
0.2884822032961697
 40
0.3734525700840743
 40
0.4570022720946865
 40
0.6168867031555729
 40
0.6796659019373148
 40
0.7634255342528317
 40
0.8137555855017751
 40
0.8702971455237448
 40
0.9323987944767276
 40
1.0
 40
1.0
 40
1.0
 40
1.0
 10
217.2980320617145
 20
284.6075693170098
 30
0.0
 10
217.3485391660131
 20
284.5811923225158
 30
0.0
 10
217.439013812036
 20
284.5339425489812
 30
0.0
 10
217.8136572320127
 20
284.4732939168321
 30
0.0
 10
218.3001696257144
 20
284.41940713623
 30
0.0
 10
218.8914975486033
 20
284.3661736301187
 30
0.0
 10
219.6456000544134
 20
284.3146239171225
 30
0.0
 10
220.286690776401
 20
284.2476800417575
 30
0.0
 10
220.9359668824751
 20
284.2121602728772
 30
0.0
 10
221.3142972713937
 20
284.2903476974028
 30
0.0
 10
221.5661504725028
 20
284.3985446003594
 30
0.0
 10
221.6997473554239
 20
284.4868870365709
 30
0.0
 10
221.7615043311789
 20
284.560727634535
 30
0.0
 10
221.6900689693761
 20
284.6412429700712
 30
0.0
 10
221.6528368159717
 20
284.6832076112298
 30
0.0
  0
SPLINE
  5
FF
330
1F
100
AcDbEntity
  8
0
  6
Continuous
 62
     7
370
    15
100
AcDbSpline
210
0.0
220
0.0
230
1.0
 70
     8
 71
     3
 72
    25
 73
    21
 74
     0
 42
0.00000001
 43
0.00000001
 40
0.0
 40
0.0
 40
0.0
 40
0.0
 40
0.017626891199656
 40
0.0344971271163479
 40
0.0503149875215914
 40
0.0649736946624755
 40
0.0909443827718167
 40
0.1134380192291229
 40
0.1538408705044994
 40
0.191234728647758
 40
0.2995718685966565
 40
0.3999645798574709
 40
0.5012967436741349
 40
0.5949071580053961
 40
0.6784893124529331
 40
0.7336313413615942
 40
0.8075206955948011
 40
0.8952856599339531
 40
0.9453107714913105
 40
1.0
 40
1.0
 40
1.0
 40
1.0
 10
221.2955144211238
 20
284.0576256650058
 30
0.0
 10
221.3352254700335
 20
284.0620196646857
 30
0.0
 10
221.4129429238172
 20
284.0706190463799
 30
0.0
 10
221.5148174981319
 20
284.1166275273322
 30
0.0
 10
221.5958392116825
 20
284.1755812068849
 30
0.0
 10
221.6720380477272
 20
284.2591563263726
 30
0.0
 10
221.7250915934036
 20
284.3628090373049
 30
0.0
 10
221.749251814474
 20
284.4951421524535
 30
0.0
 10
221.7263490750618
 20
284.6270015777536
 30
0.0
 10
221.5551326630922
 20
284.8722207600819
 30
0.0
 10
221.2123256885356
 20
284.9592978099715
 30
0.0
 10
220.7172176551934
 20
285.0178542058238
 30
0.0
 10
220.1040031108375
 20
285.0762110932754
 30
0.0
 10
219.4545352997197
 20
285.1258337420922
 30
0.0
 10
218.9148249823731
 20
285.1653145850275
 30
0.0
 10
218.4688330368801
 20
285.2044908855179
 30
0.0
 10
218.0801135786384
 20
285.2427197892881
 30
0.0
 10
217.8199537261947
 20
285.2705613796754
 30
0.0
 10
217.6895289506097
 20
285.2930552064469
 30
0.0
 10
217.6808618591722
 20
285.3055185350632
 30
0.0
 10
217.6763352915233
 20
285.3120277660457
 30
0.0
  0
SPLINE
  5
100
330
1F
100
AcDbEntity
  8
0
  6
Continuous
 62
     7
370
    15
100
AcDbSpline
210
0.0
220
0.0
230
1.0
 70
     8
 71
     3
 72
    12
 73
     8
 74
     0
 42
0.00000001
 43
0.00000001
 40
0.0
 40
0.0
 40
0.0
 40
0.0
 40
0.175647670400461
 40
0.5723083889404248
 40
0.758616423787197
 40
0.9207513991597377
 40
1.0
 40
1.0
 40
1.0
 40
1.0
 10
217.7646619244998
 20
284.4935400436191
 30
0.0
 10
217.6990982814341
 20
284.4843690154347
 30
0.0
 10
217.485473911407
 20
284.4544872848476
 30
0.0
 10
217.2695568611652
 20
284.3805462878756
 30
0.0
 10
217.1084055817717
 20
284.1656238450754
 30
0.0
 10
217.0771919338299
 20
284.0054019609116
 30
0.0
 10
217.1081689123349
 20
283.9267388268566
 30
0.0
 10
217.1183389588778
 20
283.9009129466979
 30
0.0
  0
LINE
  5
101
330
1F
100
AcDbEntity
  8
0
  6
Continuous
 62
     7
370
    15
100
AcDbLine
 10
217.2758516833
 20
275.2031088831
 30
0.0
 11
216.1573928758
 21
275.2031088831
 31
0.0
  0
LINE
  5
102
330
1F
100
AcDbEntity
  8
0
  6
Continuous
 62
     7
370
    15
100
AcDbLine
 10
216.1573928758
 20
274.4031093108
 30
0.0
 11
217.9160949751
 21
274.4031093108
 31
0.0
  0
LINE
  5
103
330
1F
100
AcDbEntity
  8
0
  6
Continuous
 62
     7
370
    15
100
AcDbLine
 10
214.7471022769
 20
288.0008496369
 30
0.0
 11
214.7471022769
 21
288.0543196599
 31
0.0
  0
LINE
  5
104
330
1F
100
AcDbEntity
  8
0
  6
Continuous
 62
     7
370
    15
100
AcDbLine
 10
211.7471036478
 20
288.0543196599
 30
0.0
 11
211.7471036478
 21
288.0008496369
 31
0.0
  0
SPLINE
  5
105
330
1F
100
AcDbEntity
  8
0
  6
Continuous
 62
     7
370
    15
100
AcDbSpline
210
0.0
220
0.0
230
1.0
 70
     8
 71
     3
 72
    15
 73
    11
 74
     0
 42
0.00000001
 43
0.00000001
 40
0.0
 40
0.0
 40
0.0
 40
0.0
 40
0.1077552675361844
 40
0.2352510372338785
 40
0.3627912513738016
 40
0.4902571009683765
 40
0.617663018955488
 40
0.7450977887964529
 40
0.8724973178809208
 40
1.0
 40
1.0
 40
1.0
 40
1.0
 10
211.7631521984523
 20
272.0008488769201
 30
0.0
 10
211.7796952084906
 20
271.6883281687633
 30
0.0
 10
211.8158118676523
 20
271.006033721058
 30
0.0
 10
212.1520090299759
 20
269.9968794707987
 30
0.0
 10
212.7100969117685
 20
269.0334011985018
 30
0.0
 10
213.4649269991823
 20
268.2124822453632
 30
0.0
 10
214.3800825436439
 20
267.577203690414
 30
0.0
 10
215.4073412379724
 20
267.1570478646411
 30
0.0
 10
216.5033204293713
 20
266.9432396361453
 30
0.0
 10
217.2390772262769
 20
267.0087701834905
 30
0.0
 10
217.6071044966166
 20
267.0415487165121
 30
0.0
  0
SPLINE
  5
106
330
1F
100
AcDbEntity
  8
0
  6
Continuous
 62
     7
370
    15
100
AcDbSpline
210
0.0
220
0.0
230
1.0
 70
     8
 71
     3
 72
    15
 73
    11
 74
     0
 42
0.00000001
 43
0.00000001
 40
0.0
 40
0.0
 40
0.0
 40
0.0
 40
0.1316497309041642
 40
0.2633111631157699
 40
0.3951882693829391
 40
0.5266681356379989
 40
0.657545980020369
 40
0.7882122681223777
 40
0.918459392610764
 40
0.9999999999999999
 40
0.9999999999999999
 40
0.9999999999999999
 40
0.9999999999999999
 10
217.1094131633227
 20
269.9992336357502
 30
0.0
 10
216.9572316904083
 20
269.9874194631337
 30
0.0
 10
216.6528552183672
 20
269.9637900678318
 30
0.0
 10
216.2019997267722
 20
270.0652697867919
 30
0.0
 10
215.7829695444987
 20
270.2521203709981
 30
0.0
 10
215.4125764651455
 20
270.524717421061
 30
0.0
 10
215.110315085522
 20
270.8706277885735
 30
0.0
 10
214.8911577703381
 20
271.2723360838709
 30
0.0
 10
214.7737848566915
 20
271.6586483984869
 30
0.0
 10
214.7636108591584
 20
271.905722593077
 30
0.0
 10
214.7596937581485
 20
272.0008488769201
 30
0.0
  0
SPLINE
  5
107
330
1F
100
AcDbEntity
  8
0
  6
Continuous
 62
     7
370
    15
100
AcDbSpline
210
0.0
220
0.0
230
1.0
 70
     8
 71
     3
 72
    15
 73
    11
 74
     0
 42
0.00000001
 43
0.00000001
 40
0.0
 40
0.0
 40
0.0
 40
0.0
 40
0.1249271199019881
 40
0.2499164786626197
 40
0.3749670180552142
 40
0.4999570436912684
 40
0.624920505096255
 40
0.7499166867458813
 40
0.8748739282905801
 40
1.0
 40
1.0
 40
1.0
 40
1.0
 10
217.7779835626071
 20
292.9313700670866
 30
0.0
 10
217.4116069032022
 20
292.974701923657
 30
0.0
 10
216.6786710550495
 20
293.0613872247867
 30
0.0
 10
215.5746449774628
 20
292.8961974831401
 30
0.0
 10
214.5338456853387
 20
292.5072666835957
 30
0.0
 10
213.5986567085219
 20
291.90225218716
 30
0.0
 10
212.8180131997875
 20
291.1060583402167
 30
0.0
 10
212.2300508727305
 20
290.1616950747962
 30
0.0
 10
211.8342145424432
 20
289.1132525287263
 30
0.0
 10
211.7761536782583
 20
288.3741303321713
 30
0.0
 10
211.7471036478465
 20
288.0043197447924
 30
0.0
  0
SPLINE
  5
108
330
1F
100
AcDbEntity
  8
0
  6
Continuous
 62
     7
370
    15
100
AcDbSpline
210
0.0
220
0.0
230
1.0
 70
     8
 71
     3
 72
    15
 73
    11
 74
     0
 42
0.00000001
 43
0.00000001
 40
0.0
 40
0.0
 40
0.0
 40
0.0
 40
0.1242527101213646
 40
0.2486335825946776
 40
0.3735414236081396
 40
0.498583312213038
 40
0.6236637605150498
 40
0.7490698541557573
 40
0.8744383731249473
 40
1.0
 40
1.0
 40
1.0
 40
1.0
 10
214.7471022769397
 20
288.0043197447924
 30
0.0
 10
214.760659080141
 20
288.1562762493956
 30
0.0
 10
214.787786669915
 20
288.4603459964551
 30
0.0
 10
214.9622560621528
 20
288.8876582190817
 30
0.0
 10
215.2155868970923
 20
289.2693022639217
 30
0.0
 10
215.5454110731814
 20
289.5892310559668
 30
0.0
 10
215.9363371027904
 20
289.8298073208559
 30
0.0
 10
216.3690352116734
 20
289.9814310673125
 30
0.0
 10
216.8265670522703
 20
290.0348885545701
 30
0.0
 10
217.1284862832021
 20
289.9941985459386
 30
0.0
 10
217.2795620724147
 20
289.9738378847508
 30
0.0
  0
LINE
  5
109
330
1F
100
AcDbEntity
  8
0
  6
Continuous
 62
     7
370
    15
100
AcDbLine
 10
232.6501619979
 20
272.6159860405
 30
0.0
 11
217.1091970965
 21
269.9995679806
 31
0.0
  0
LINE
  5
10A
330
1F
100
AcDbEntity
  8
0
  6
Continuous
 62
     7
370
    15
100
AcDbLine
 10
217.6072535082
 20
267.0412004019
 30
0.0
 11
233.1482258603
 21
269.6576189274
 31
0.0
  0
LINE
  5
10B
330
1F
100
AcDbEntity
  8
0
  6
Continuous
 62
     7
370
    15
100
AcDbLine
 10
217.2797781393
 20
289.9734122703
 30
0.0
 11
232.8207504913
 21
287.3569932791
 31
0.0
  0
LINE
  5
10C
330
1F
100
AcDbEntity
  8
0
  6
Continuous
 62
     7
370
    15
100
AcDbLine
 10
233.318806903
 20
290.3153603921
 30
0.0
 11
217.7778420016
 21
292.9317789177
 31
0.0
  0
SPLINE
  5
10D
330
1F
100
AcDbEntity
  8
0
  6
Continuous
 62
     7
370
    15
100
AcDbSpline
210
0.0
220
0.0
230
1.0
 70
     8
 71
     3
 72
    12
 73
     8
 74
     0
 42
0.00000001
 43
0.00000001
 40
0.0
 40
0.0
 40
0.0
 40
0.0
 40
0.1526138277410233
 40
0.2973906386375711
 40
0.5623707933915906
 40
0.7966024105034107
 40
0.9999999999999999
 40
0.9999999999999999
 40
0.9999999999999999
 40
0.9999999999999999
 10
233.1478756829684
 20
269.6579281265406
 30
0.0
 10
233.3990952788854
 20
269.7106662148431
 30
0.0
 10
233.8886338559193
 20
269.8134341880535
 30
0.0
 10
234.7381561315021
 20
270.2426794219069
 30
0.0
 10
235.5501491553039
 20
270.9870717931117
 30
0.0
 10
236.1145846415074
 20
272.0581153668876
 30
0.0
 10
236.1962743791788
 20
272.7930410034844
 30
0.0
 10
236.2342414423412
 20
273.1346135052411
 30
0.0
  0
SPLINE
  5
10E
330
1F
100
AcDbEntity
  8
0
  6
Continuous
 62
     7
370
    15
100
AcDbSpline
210
0.0
220
0.0
230
1.0
 70
     8
 71
     3
 72
    11
 73
     7
 74
     0
 42
0.00000001
 43
0.00000001
 40
0.0
 40
0.0
 40
0.0
 40
0.0
 40
0.200357051305965
 40
0.4328048089701403
 40
0.6990199465929517
 40
1.0
 40
1.0
 40
1.0
 40
1.0
 10
233.2359266444629
 20
273.1346135052411
 30
0.0
 10
233.2226991931052
 20
273.0781869777916
 30
0.0
 10
233.1941256813635
 20
272.9562962218913
 30
0.0
 10
233.0782406956136
 20
272.7905959732594
 30
0.0
 10
232.8934879005589
 20
272.6516865143867
 30
0.0
 10
232.73586684522
 20
272.6282985328115
 30
0.0
 10
232.6522258087581
 20
272.6158877859382
 30
0.0
  0
SPLINE
  5
10F
330
1F
100
AcDbEntity
  8
0
  6
Continuous
 62
     7
370
    15
100
AcDbSpline
210
0.0
220
0.0
230
1.0
 70
     8
 71
     3
 72
    12
 73
     8
 74
     0
 42
0.00000001
 43
0.00000001
 40
0.0
 40
0.0
 40
0.0
 40
0.0
 40
0.2034065801408748
 40
0.4376406898974082
 40
0.7026158536940192
 40
0.8473899973411095
 40
0.9999999999999999
 40
0.9999999999999999
 40
0.9999999999999999
 40
0.9999999999999999
 10
236.2342414423411
 20
286.6932443367807
 30
0.0
 10
236.2128036909026
 20
287.0362532277817
 30
0.0
 10
236.1666791637467
 20
287.7742561360193
 30
0.0
 10
235.6545732912708
 20
288.8713648498346
 30
0.0
 10
234.8793670325171
 20
289.6541217331898
 30
0.0
 10
234.0515168329217
 20
290.1238496984981
 30
0.0
 10
233.5675279181326
 20
290.2501109188803
 30
0.0
 10
233.3191570803111
 20
290.3149049753813
 30
0.0
  0
SPLINE
  5
110
330
1F
100
AcDbEntity
  8
0
  6
Continuous
 62
     7
370
    15
100
AcDbSpline
210
0.0
220
0.0
230
1.0
 70
     8
 71
     3
 72
    12
 73
     8
 74
     0
 42
0.00000001
 43
0.00000001
 40
0.0
 40
0.0
 40
0.0
 40
0.0
 40
0.155553607216955
 40
0.3022025601964606
 40
0.5679660049298992
 40
0.7999450310488447
 40
1.0
 40
1.0
 40
1.0
 40
1.0
 10
232.8188282414859
 20
287.3579115631549
 30
0.0
 10
232.8593725764101
 20
287.3421620534569
 30
0.0
 10
232.9381402889355
 20
287.311564613528
 30
0.0
 10
233.0677698468691
 20
287.2165201055171
 30
0.0
 10
233.1822015381309
 20
287.0703476337121
 30
0.0
 10
233.2463465855206
 20
286.8760940414542
 30
0.0
 10
233.2392245362209
 20
286.7511159246004
 30
0.0
 10
233.2359266444629
 20
286.6932443367807
 30
0.0
  0
LINE
  5
111
330
1F
100
AcDbEntity
  8
0
  6
Continuous
 62
     7
370
    15
100
AcDbLine
 10
233.2350847289
 20
286.7432442518
 30
0.0
 11
233.2350847289
 21
286.500849391
 31
0.0
  0
LINE
  5
112
330
1F
100
AcDbEntity
  8
0
  6
Continuous
 62
     7
370
    15
100
AcDbLine
 10
233.2350847289
 20
273.5008491228
 30
0.0
 11
233.2350847289
 21
273.0846135902
 31
0.0
  0
LINE
  5
113
330
1F
100
AcDbEntity
  8
0
  6
Continuous
 62
     7
370
    15
100
AcDbLine
 10
236.2350833579
 20
273.0846135902
 30
0.0
 11
236.2350833579
 21
273.5035937304
 31
0.0
  0
LINE
  5
114
330
1F
100
AcDbEntity
  8
0
  6
Continuous
 62
     7
370
    15
100
AcDbLine
 10
236.2350833579
 20
286.4981047834
 30
0.0
 11
236.2350833579
 21
286.7432442518
 31
0.0
  0
LINE
  5
115
330
1F
100
AcDbEntity
  8
0
  6
Continuous
 62
     7
370
    15
100
AcDbLine
 10
222.5343671605
 20
285.6008490572
 30
0.0
 11
220.9160936042
 21
285.6008490572
 31
0.0
  0
LINE
  5
116
330
1F
100
AcDbEntity
  8
0
  6
Continuous
 62
     7
370
    15
100
AcDbLine
 10
221.543015258
 20
284.8008494849
 30
0.0
 11
222.5343671605
 21
284.8008494849
 31
0.0
  0
LINE
  5
117
330
1F
100
AcDbEntity
  8
0
  6
Continuous
 62
     7
370
    15
100
AcDbLine
 10
222.8725937172
 20
286.8689881662
 30
0.0
 11
222.6060640975
 21
285.660741015
 31
0.0
  0
LINE
  5
118
330
1F
100
AcDbEntity
  8
0
  6
Continuous
 62
     7
370
    15
100
AcDbLine
 10
223.3742189571
 20
285.4291909399
 30
0.0
 11
223.6538094446
 21
286.696660428
 31
0.0
  0
SPLINE
  5
119
330
1F
100
AcDbEntity
  8
0
  6
Continuous
 62
     7
370
    15
100
AcDbSpline
210
0.0
220
0.0
230
1.0
 70
     8
 71
     3
 72
    11
 73
     7
 74
     0
 42
0.00000001
 43
0.00000001
 40
0.0
 40
0.0
 40
0.0
 40
0.0
 40
0.2541309399275824
 40
0.5022690019548702
 40
0.7495126202113759
 40
1.0
 40
1.0
 40
1.0
 40
1.0
 10
222.5343671604579
 20
284.8008494848875
 30
0.0
 10
222.6344559048929
 20
284.8110955963658
 30
0.0
 10
222.8322731159284
 20
284.8313461970504
 30
0.0
 10
223.0904184421266
 20
284.9853786848202
 30
0.0
 10
223.2938674279621
 20
285.2044528175174
 30
0.0
 10
223.3556059093115
 20
285.3915026013775
 30
0.0
 10
223.386676327843
 20
285.4856370041637
 30
0.0
  0
LINE
  5
11A
330
1F
100
AcDbEntity
  8
0
  6
Continuous
 62
     7
370
    15
100
AcDbLine
 10
232.5147029921
 20
286.500849391
 30
0.0
 11
232.5147029921
 21
273.5008491228
 31
0.0
  0
LINE
  5
11B
330
1F
100
AcDbEntity
  8
0
  6
Continuous
 62
     7
370
    15
100
AcDbLine
 10
232.5147029921
 20
286.500849391
 30
0.0
 11
235.2336806222
 21
286.500849391
 31
0.0
  0
LWPOLYLINE
  5
11C
330
1F
100
AcDbEntity
  8
0
  6
Continuous
 62
     7
370
    15
100
AcDbPolyline
 90
        9
 70
   128
 43
0.0
 10
235.9641951486
 20
285.3008491012
 10
235.9501582548
 20
285.5349575194
 10
235.9085914656
 20
285.7600693616
 10
235.8410817548
 20
285.9675335723
 10
235.7502368256
 20
286.1493775646
 10
235.6395360991
 20
286.2986126939
 10
235.5132413074
 20
286.4095048072
 10
235.3762027785
 20
286.4777917067
 10
235.2336806222
 20
286.500849391
  0
LINE
  5
11D
330
1F
100
AcDbEntity
  8
0
  6
Continuous
 62
     7
370
    15
100
AcDbLine
 10
235.9641951486
 20
285.3008491012
 30
0.0
 11
235.9641951486
 21
274.7008494126
 31
0.0
  0
LWPOLYLINE
  5
11E
330
1F
100
AcDbEntity
  8
0
  6
Continuous
 62
     7
370
    15
100
AcDbPolyline
 90
        9
 70
   128
 43
0.0
 10
235.2336806222
 20
273.5008491228
 10
235.3762027785
 20
273.5239068071
 10
235.5132413074
 20
273.5921937066
 10
235.6395360991
 20
273.7030858199
 10
235.7502368256
 20
273.8523209492
 10
235.8410817548
 20
274.0341649415
 10
235.9085914656
 20
274.2416291522
 10
235.9501582548
 20
274.4667409944
 10
235.9641951486
 20
274.7008494126
  0
LINE
  5
11F
330
1F
100
AcDbEntity
  8
0
  6
Continuous
 62
     7
370
    15
100
AcDbLine
 10
235.2336806222
 20
273.5008491228
 30
0.0
 11
232.5147029921
 21
273.5008491228
 31
0.0
  0
LINE
  5
120
330
1F
100
AcDbEntity
  8
0
  6
Continuous
 62
     7
370
    15
100
AcDbLine
 10
236.1857083603
 20
273.5008491228
 30
0.0
 11
235.2336806222
 21
273.5008491228
 31
0.0
  0
LINE
  5
121
330
1F
100
AcDbEntity
  8
0
  6
Continuous
 62
     7
370
    15
100
AcDbLine
 10
235.9641951486
 20
274.7008494126
 30
0.0
 11
236.9162228867
 21
274.7008494126
 31
0.0
  0
LWPOLYLINE
  5
122
330
1F
100
AcDbEntity
  8
0
  6
Continuous
 62
     7
370
    15
100
AcDbPolyline
 90
        9
 70
   128
 43
0.0
 10
236.9162228867
 20
274.7008494126
 10
236.9021859929
 20
274.4667409944
 10
236.8606117531
 20
274.2416291522
 10
236.7931094929
 20
274.0341649415
 10
236.7022571131
 20
273.8523209492
 10
236.5915563866
 20
273.7030858199
 10
236.4652615949
 20
273.5921937066
 10
236.328223066
 20
273.5239068071
 10
236.1857083603
 20
273.5008491228
  0
LINE
  5
123
330
1F
100
AcDbEntity
  8
0
  6
Continuous
 62
     7
370
    15
100
AcDbLine
 10
236.9162228867
 20
285.3008491012
 30
0.0
 11
235.9641951486
 21
285.3008491012
 31
0.0
  0
LINE
  5
124
330
1F
100
AcDbEntity
  8
0
  6
Continuous
 62
     7
370
    15
100
AcDbLine
 10
236.9162228867
 20
285.3008491012
 30
0.0
 11
236.9162228867
 21
274.7008494126
 31
0.0
  0
LINE
  5
125
330
1F
100
AcDbEntity
  8
0
  6
Continuous
 62
     7
370
    15
100
AcDbLine
 10
235.2336806222
 20
286.500849391
 30
0.0
 11
236.1857083603
 21
286.500849391
 31
0.0
  0
LWPOLYLINE
  5
126
330
1F
100
AcDbEntity
  8
0
  6
Continuous
 62
     7
370
    15
100
AcDbPolyline
 90
        9
 70
   128
 43
0.0
 10
236.1857083603
 20
286.500849391
 10
236.328223066
 20
286.4777917067
 10
236.4652615949
 20
286.4095048072
 10
236.5915563866
 20
286.2986126939
 10
236.7022571131
 20
286.1493775646
 10
236.7931094929
 20
285.9675335723
 10
236.8606117531
 20
285.7600693616
 10
236.9021859929
 20
285.5349575194
 10
236.9162228867
 20
285.3008491012
  0
LINE
  5
127
330
1F
100
AcDbEntity
  8
0
  6
Continuous
 62
     7
370
    15
100
AcDbLine
 10
231.9360909029
 20
286.500849391
 30
0.0
 11
232.5147029921
 21
286.500849391
 31
0.0
  0
LINE
  5
128
330
1F
100
AcDbEntity
  8
0
  6
Continuous
 62
     7
370
    15
100
AcDbLine
 10
232.5147029921
 20
273.5008491228
 30
0.0
 11
231.9360909029
 21
273.5008491228
 31
0.0
  0
LINE
  5
129
330
1F
100
AcDbEntity
  8
0
  6
Continuous
 62
     7
370
    15
100
AcDbLine
 10
242.0360905096
 20
285.400849397
 30
0.0
 11
240.5360949203
 21
285.400849397
 31
0.0
  0
LINE
  5
12A
330
1F
100
AcDbEntity
  8
0
  6
Continuous
 62
     7
370
    15
100
AcDbLine
 10
240.5360949203
 20
285.400849397
 30
0.0
 11
240.5360949203
 21
284.600849359
 31
0.0
  0
LINE
  5
12B
330
1F
100
AcDbEntity
  8
0
  6
Continuous
 62
     7
370
    15
100
AcDbLine
 10
240.5360949203
 20
284.600849359
 30
0.0
 11
242.0360905096
 21
284.600849359
 31
0.0
  0
LINE
  5
12C
330
1F
100
AcDbEntity
  8
0
  6
Continuous
 62
     7
370
    15
100
AcDbLine
 10
242.0360905096
 20
284.600849359
 30
0.0
 11
242.0360905096
 21
283.1008493459
 31
0.0
  0
LINE
  5
12D
330
1F
100
AcDbEntity
  8
0
  6
Continuous
 62
     7
370
    15
100
AcDbLine
 10
242.8360966011
 20
283.1008493459
 30
0.0
 11
242.8360966011
 21
284.600849359
 31
0.0
  0
LINE
  5
12E
330
1F
100
AcDbEntity
  8
0
  6
Continuous
 62
     7
370
    15
100
AcDbLine
 10
242.8360966011
 20
284.600849359
 30
0.0
 11
244.3360921904
 21
284.600849359
 31
0.0
  0
LINE
  5
12F
330
1F
100
AcDbEntity
  8
0
  6
Continuous
 62
     7
370
    15
100
AcDbLine
 10
244.3360921904
 20
284.600849359
 30
0.0
 11
244.3360921904
 21
285.400849397
 31
0.0
  0
LINE
  5
130
330
1F
100
AcDbEntity
  8
0
  6
Continuous
 62
     7
370
    15
100
AcDbLine
 10
244.3360921904
 20
285.400849397
 30
0.0
 11
242.8360966011
 21
285.400849397
 31
0.0
  0
LINE
  5
131
330
1F
100
AcDbEntity
  8
0
  6
Continuous
 62
     7
370
    15
100
AcDbLine
 10
242.8360966011
 20
285.400849397
 30
0.0
 11
242.8360966011
 21
286.9008491772
 31
0.0
  0
LINE
  5
132
330
1F
100
AcDbEntity
  8
0
  6
Continuous
 62
     7
370
    15
100
AcDbLine
 10
242.8360966011
 20
286.9008491772
 30
0.0
 11
242.0360905096
 21
286.9008491772
 31
0.0
  0
LINE
  5
133
330
1F
100
AcDbEntity
  8
0
  6
Continuous
 62
     7
370
    15
100
AcDbLine
 10
242.0360905096
 20
286.9008491772
 30
0.0
 11
242.0360905096
 21
285.400849397
 31
0.0
  0
LINE
  5
134
330
1F
100
AcDbEntity
  8
0
  6
Continuous
 62
     7
370
    15
100
AcDbLine
 10
242.0360905096
 20
283.1008493459
 30
0.0
 11
242.8360966011
 21
283.1008493459
 31
0.0
  0
CIRCLE
  5
135
330
1F
100
AcDbEntity
  8
0
  6
Continuous
 62
     7
370
    15
100
AcDbCircle
 10
242.4360934183
 20
285.0008492569
 30
0.0
 40
2.999999999999972
  0
LINE
  5
136
330
1F
100
AcDbEntity
  8
0
  6
Continuous
 62
     7
370
    15
100
AcDbLine
 10
242.0360905096
 20
273.1008493366
 30
0.0
 11
242.8360966011
 21
273.1008493366
 31
0.0
  0
LINE
  5
137
330
1F
100
AcDbEntity
  8
0
  6
Continuous
 62
     7
370
    15
100
AcDbLine
 10
242.8360966011
 20
273.1008493366
 30
0.0
 11
242.8360966011
 21
274.6008491168
 31
0.0
  0
LINE
  5
138
330
1F
100
AcDbEntity
  8
0
  6
Continuous
 62
     7
370
    15
100
AcDbLine
 10
242.8360966011
 20
274.6008491168
 30
0.0
 11
244.3360921904
 21
274.6008491168
 31
0.0
  0
LINE
  5
139
330
1F
100
AcDbEntity
  8
0
  6
Continuous
 62
     7
370
    15
100
AcDbLine
 10
244.3360921904
 20
274.6008491168
 30
0.0
 11
244.3360921904
 21
275.4008491548
 31
0.0
  0
LINE
  5
13A
330
1F
100
AcDbEntity
  8
0
  6
Continuous
 62
     7
370
    15
100
AcDbLine
 10
244.3360921904
 20
275.4008491548
 30
0.0
 11
242.8360966011
 21
275.4008491548
 31
0.0
  0
LINE
  5
13B
330
1F
100
AcDbEntity
  8
0
  6
Continuous
 62
     7
370
    15
100
AcDbLine
 10
242.8360966011
 20
275.4008491548
 30
0.0
 11
242.8360966011
 21
276.9008491679
 31
0.0
  0
LINE
  5
13C
330
1F
100
AcDbEntity
  8
0
  6
Continuous
 62
     7
370
    15
100
AcDbLine
 10
242.8360966011
 20
276.9008491679
 30
0.0
 11
242.0360905096
 21
276.9008491679
 31
0.0
  0
LINE
  5
13D
330
1F
100
AcDbEntity
  8
0
  6
Continuous
 62
     7
370
    15
100
AcDbLine
 10
242.0360905096
 20
276.9008491679
 30
0.0
 11
242.0360905096
 21
275.4008491548
 31
0.0
  0
LINE
  5
13E
330
1F
100
AcDbEntity
  8
0
  6
Continuous
 62
     7
370
    15
100
AcDbLine
 10
242.0360905096
 20
275.4008491548
 30
0.0
 11
240.5360949203
 21
275.4008491548
 31
0.0
  0
LINE
  5
13F
330
1F
100
AcDbEntity
  8
0
  6
Continuous
 62
     7
370
    15
100
AcDbLine
 10
240.5360949203
 20
275.4008491548
 30
0.0
 11
240.5360949203
 21
274.6008491168
 31
0.0
  0
CIRCLE
  5
140
330
1F
100
AcDbEntity
  8
0
  6
Continuous
 62
     7
370
    15
100
AcDbCircle
 10
242.4360934183
 20
275.0008492569
 30
0.0
 40
3.0
  0
LINE
  5
141
330
1F
100
AcDbEntity
  8
0
  6
Continuous
 62
     7
370
    15
100
AcDbLine
 10
240.5360949203
 20
274.6008491168
 30
0.0
 11
242.0360905096
 21
274.6008491168
 31
0.0
  0
LINE
  5
142
330
1F
100
AcDbEntity
  8
0
  6
Continuous
 62
     7
370
    15
100
AcDbLine
 10
242.0360905096
 20
274.6008491168
 30
0.0
 11
242.0360905096
 21
273.1008493366
 31
0.0
  0
LINE
  5
143
330
1F
100
AcDbEntity
  8
0
  6
Continuous
 62
     7
370
    15
100
AcDbLine
 10
241.4183256194
 20
268.8989635582
 30
0.0
 11
236.4360925719
 21
273.5008491228
 31
0.0
  0
LINE
  5
144
330
1F
100
AcDbEntity
  8
0
  6
Continuous
 62
     7
370
    15
100
AcDbLine
 10
236.4360925719
 20
286.500849391
 30
0.0
 11
241.4183256194
 21
291.1027349556
 31
0.0
  0
ARC
  5
145
330
1F
100
AcDbEntity
  8
0
  6
Continuous
 62
     7
370
    15
100
AcDbCircle
 10
242.4360934183
 20
290.0008492569
 30
0.0
 40
1.500000000000036
100
AcDbArc
 50
43.6028189726
 51
132.7273953127
  0
ARC
  5
146
330
1F
100
AcDbEntity
  8
0
  6
Continuous
 62
     7
370
    15
100
AcDbCircle
 10
231.9360934183
 20
280.0008492569
 30
0.0
 40
16.00000000000002
100
AcDbArc
 50
316.3971810272
 51
43.6028189726
  0
ARC
  5
147
330
1F
100
AcDbEntity
  8
0
  6
Continuous
 62
     7
370
    15
100
AcDbCircle
 10
242.4360934182
 20
270.0008492569
 30
0.0
 40
1.50000000000003
100
AcDbArc
 50
227.2726046868
 51
316.3971810272
  0
LINE
  5
148
330
1F
100
AcDbEntity
  8
0
  6
Continuous
 62
     7
370
    15
100
AcDbLine
 10
236.2350833579
 20
286.500849391
 30
0.0
 11
236.4360925719
 21
286.500849391
 31
0.0
  0
LINE
  5
149
330
1F
100
AcDbEntity
  8
0
  6
Continuous
 62
     7
370
    15
100
AcDbLine
 10
236.4360925719
 20
273.5008491228
 30
0.0
 11
236.2350833579
 21
273.5008491228
 31
0.0
  0
LINE
  5
14A
330
1F
100
AcDbEntity
  8
0
  6
Continuous
 62
     7
370
    15
100
AcDbLine
 10
239.436091201
 20
80.0008462767
 30
0.0
 11
244.4360938832
 21
80.0008462767
 31
0.0
  0
LINE
  5
14B
330
1F
100
AcDbEntity
  8
0
  6
Continuous
 62
     7
370
    15
100
AcDbLine
 10
239.436091201
 20
95.0008468727
 30
0.0
 11
239.436091201
 21
80.0008462767
 31
0.0
  0
LINE
  5
14C
330
1F
100
AcDbEntity
  8
0
  6
Continuous
 62
     7
370
    15
100
AcDbLine
 10
239.436091201
 20
95.0008468727
 30
0.0
 11
244.4360938832
 21
95.0008468727
 31
0.0
  0
LINE
  5
14D
330
1F
100
AcDbEntity
  8
0
  6
Continuous
 62
     7
370
    15
100
AcDbLine
 10
244.4360938832
 20
95.0008468727
 30
0.0
 11
244.4360938832
 21
80.0008462767
 31
0.0
  0
LINE
  5
14E
330
1F
100
AcDbEntity
  8
0
  6
Continuous
 62
     7
370
    15
100
AcDbLine
 10
244.4360938832
 20
95.0008468727
 30
0.0
 11
259.4360944792
 21
95.0008468727
 31
0.0
  0
ARC
  5
14F
330
1F
100
AcDbEntity
  8
0
  6
Continuous
 62
     7
370
    15
100
AcDbCircle
 10
244.4360934183
 20
95.0008492569
 30
0.0
 40
15.0
100
AcDbArc
 50
270.0
 51
0.0
  0
LINE
  5
150
330
1F
100
AcDbEntity
  8
0
  6
Continuous
 62
     7
370
    15
100
AcDbLine
 10
244.4360938832
 20
95.0008468727
 30
0.0
 11
244.4360938832
 21
270.0133571426
 31
0.0
  0
LINE
  5
151
330
1F
100
AcDbEntity
  8
0
  6
Continuous
 62
     7
370
    15
100
AcDbLine
 10
239.436091201
 20
95.0008468727
 30
0.0
 11
239.436091201
 21
270.729872028
 31
0.0
  0
LINE
  5
152
330
1F
100
AcDbEntity
  8
0
  6
Continuous
 62
     7
370
    15
100
AcDbLine
 10
259.4360944792
 20
95.0008468727
 30
0.0
 11
259.4360944792
 21
465.0008516411
 31
0.0
  0
LINE
  5
153
330
1F
100
AcDbEntity
  8
0
  6
Continuous
 62
     7
370
    15
100
AcDbLine
 10
244.4360938832
 20
289.9883413712
 30
0.0
 11
244.4360938832
 21
465.0008516411
 31
0.0
  0
LINE
  5
154
330
1F
100
AcDbEntity
  8
0
  6
Continuous
 62
     7
370
    15
100
AcDbLine
 10
244.4360938832
 20
465.0008516411
 30
0.0
 11
259.4360944792
 21
465.0008516411
 31
0.0
  0
LINE
  5
155
330
1F
100
AcDbEntity
  8
0
  6
Continuous
 62
     7
370
    15
100
AcDbLine
 10
239.436091201
 20
465.0008516411
 30
0.0
 11
244.4360938832
 21
465.0008516411
 31
0.0
  0
LINE
  5
156
330
1F
100
AcDbEntity
  8
0
  6
Continuous
 62
     7
370
    15
100
AcDbLine
 10
239.436091201
 20
289.2718264858
 30
0.0
 11
239.436091201
 21
465.0008516411
 31
0.0
  0
LINE
  5
157
330
1F
100
AcDbEntity
  8
0
  6
Continuous
 62
     7
370
    15
100
AcDbLine
 10
239.436091201
 20
480.0008522371
 30
0.0
 11
244.4360938832
 21
480.0008522371
 31
0.0
  0
LINE
  5
158
330
1F
100
AcDbEntity
  8
0
  6
Continuous
 62
     7
370
    15
100
AcDbLine
 10
244.4360938832
 20
465.0008516411
 30
0.0
 11
244.4360938832
 21
480.0008522371
 31
0.0
  0
LINE
  5
159
330
1F
100
AcDbEntity
  8
0
  6
Continuous
 62
     7
370
    15
100
AcDbLine
 10
239.436091201
 20
465.0008516411
 30
0.0
 11
239.436091201
 21
480.0008522371
 31
0.0
  0
ARC
  5
15A
330
1F
100
AcDbEntity
  8
0
  6
Continuous
 62
     7
370
    15
100
AcDbCircle
 10
244.4360934183
 20
465.0008492569
 30
0.0
 40
15.0
100
AcDbArc
 50
0.0
 51
90.0
  0
LINE
  5
15B
330
1F
100
AcDbEntity
  8
0
  6
Continuous
 62
     7
370
    15
100
AcDbLine
 10
222.6470199391
 20
275.3008493247
 30
0.0
 11
222.6470199391
 21
283.9008491511
 31
0.0
  0
LINE
  5
15C
330
1F
100
AcDbEntity
  8
0
  6
Continuous
 62
     7
370
    15
100
AcDbLine
 10
217.13272603
 20
275.3008493247
 30
0.0
 11
217.13272603
 21
283.9008491511
 31
0.0
  0
LINE
  5
15D
330
1F
100
AcDbEntity
  8
0
  6
Continuous
 62
     7
370
    15
100
AcDbLine
 10
222.6470199391
 20
283.9008491511
 30
0.0
 11
217.13272603
 21
283.9008491511
 31
0.0
  0
LINE
  5
15E
330
1F
100
AcDbEntity
  8
0
  6
Continuous
 62
     7
370
    15
100
AcDbLine
 10
222.6470199391
 20
275.3008493247
 30
0.0
 11
217.13272603
 21
275.3008493247
 31
0.0
  0
LINE
  5
15F
330
1F
100
AcDbEntity
  8
0
  6
Continuous
 62
     7
370
    15
100
AcDbLine
 10
216.01846935
 20
287.2008491332
 30
0.0
 11
191.2063595816
 21
287.2008491332
 31
0.0
  0
LINE
  5
160
330
1F
100
AcDbEntity
  8
0
  6
Continuous
 62
     7
370
    15
100
AcDbLine
 10
216.01846935
 20
283.9008491511
 30
0.0
 11
216.01846935
 21
287.2008491332
 31
0.0
  0
LINE
  5
161
330
1F
100
AcDbEntity
  8
0
  6
Continuous
 62
     7
370
    15
100
AcDbLine
 10
216.01846935
 20
272.8008493806
 30
0.0
 11
216.01846935
 21
275.3008493247
 31
0.0
  0
LINE
  5
162
330
1F
100
AcDbEntity
  8
0
  6
Continuous
 62
     7
370
    15
100
AcDbLine
 10
191.2063595816
 20
272.8008493806
 30
0.0
 11
216.01846935
 21
272.8008493806
 31
0.0
  0
LINE
  5
163
330
1F
100
AcDbEntity
  8
0
  6
Continuous
 62
     7
370
    15
100
AcDbLine
 10
191.2063595816
 20
272.8008493806
 30
0.0
 11
191.2063595816
 21
287.2008491332
 31
0.0
  0
LINE
  5
164
330
1F
100
AcDbEntity
  8
0
  6
Continuous
 62
     7
370
    15
100
AcDbLine
 10
216.01846935
 20
283.9008491511
 30
0.0
 11
217.13272603
 21
283.9008491511
 31
0.0
  0
LINE
  5
165
330
1F
100
AcDbEntity
  8
0
  6
Continuous
 62
     7
370
    15
100
AcDbLine
 10
216.01846935
 20
275.3008493247
 30
0.0
 11
217.13272603
 21
275.3008493247
 31
0.0
  0
LINE
  5
166
330
1F
100
AcDbEntity
  8
0
  6
Continuous
 62
     7
370
    15
100
AcDbLine
 10
216.146090345
 20
272.0034984896
 30
0.0
 11
218.0383217498
 21
272.0034984896
 31
0.0
  0
LINE
  5
167
330
1F
100
AcDbEntity
  8
0
  6
Continuous
 62
     7
370
    15
100
AcDbLine
 10
218.0383217498
 20
272.0034984896
 30
0.0
 11
218.7110793754
 21
272.0008488769
 31
0.0
  0
LINE
  5
168
330
1F
100
AcDbEntity
  8
0
  6
Continuous
 62
     7
370
    15
100
AcDbLine
 10
218.7110793754
 20
272.0008488769
 30
0.0
 11
191.3452793821
 21
272.0008488769
 31
0.0
  0
ARC
  5
169
330
1F
100
AcDbEntity
  8
0
  6
Continuous
 62
     7
370
    15
100
AcDbCircle
 10
192.462303813
 20
272.6068817073
 30
0.0
 40
1.270834123965091
100
AcDbArc
 50
171.2206182958
 51
208.4816967507
  0
ARC
  5
16A
330
1F
100
AcDbEntity
  8
0
  6
Continuous
 62
     7
370
    15
100
AcDbCircle
 10
217.4928594165
 20
272.6279460139
 30
0.0
 40
1.484493732680801
100
AcDbArc
 50
173.3114100657
 51
204.8754288142
  0
LINE
  5
16B
330
1F
100
AcDbEntity
  8
0
  6
Continuous
 62
     7
370
    15
100
AcDbLine
 10
218.0383217498
 20
287.9982000242
 30
0.0
 11
216.146090345
 21
287.9982000242
 31
0.0
  0
ARC
  5
16C
330
1F
100
AcDbEntity
  8
0
  6
Continuous
 62
     7
370
    15
100
AcDbCircle
 10
217.4928594165
 20
287.3737524999
 30
0.0
 40
1.484493732680801
100
AcDbArc
 50
155.1245711858
 51
186.6885899343
  0
ARC
  5
16D
330
1F
100
AcDbEntity
  8
0
  6
Continuous
 62
     7
370
    15
100
AcDbCircle
 10
192.462303813
 20
287.3948168065
 30
0.0
 40
1.270834123965065
100
AcDbArc
 50
151.5183032493
 51
188.7793817042
  0
LINE
  5
16E
330
1F
100
AcDbEntity
  8
0
  6
Continuous
 62
     7
370
    15
100
AcDbLine
 10
191.3452793821
 20
288.0008496369
 30
0.0
 11
218.7110793754
 21
288.0008496369
 31
0.0
  0
LINE
  5
16F
330
1F
100
AcDbEntity
  8
0
  6
Continuous
 62
     7
370
    15
100
AcDbLine
 10
218.7110793754
 20
288.0008496369
 30
0.0
 11
218.0383217498
 21
287.9982000242
 31
0.0
  0
LINE
  5
170
330
1F
100
AcDbEntity
  8
0
  6
Continuous
 62
     7
370
    15
100
AcDbLine
 10
216.146090345
 20
287.2008491332
 30
0.0
 11
216.146090345
 21
287.9982000242
 31
0.0
  0
LINE
  5
171
330
1F
100
AcDbEntity
  8
0
  6
Continuous
 62
     7
370
    15
100
AcDbLine
 10
216.1573928758
 20
287.2008491332
 30
0.0
 11
216.1573928758
 21
283.9008491511
 31
0.0
  0
LINE
  5
172
330
1F
100
AcDbEntity
  8
0
  6
Continuous
 62
     7
370
    15
100
AcDbLine
 10
216.146090345
 20
272.0034984896
 30
0.0
 11
216.146090345
 21
272.8008493806
 31
0.0
  0
LINE
  5
173
330
1F
100
AcDbEntity
  8
0
  6
Continuous
 62
     7
370
    15
100
AcDbLine
 10
216.1573928758
 20
275.3008493247
 30
0.0
 11
216.1573928758
 21
272.8008493806
 31
0.0
  0
LINE
  5
174
330
1F
100
AcDbEntity
  8
0
  6
Continuous
 62
     7
370
    15
100
AcDbLine
 10
218.0383217498
 20
287.2008491332
 30
0.0
 11
218.0383217498
 21
287.9982000242
 31
0.0
  0
LINE
  5
175
330
1F
100
AcDbEntity
  8
0
  6
Continuous
 62
     7
370
    15
100
AcDbLine
 10
222.1460950538
 20
288.0008496369
 30
0.0
 11
218.7110793754
 21
288.0008496369
 31
0.0
  0
LINE
  5
176
330
1F
100
AcDbEntity
  8
0
  6
Continuous
 62
     7
370
    15
100
AcDbLine
 10
222.1460950538
 20
287.2008491332
 30
0.0
 11
218.0383217498
 21
287.2008491332
 31
0.0
  0
LINE
  5
177
330
1F
100
AcDbEntity
  8
0
  6
Continuous
 62
     7
370
    15
100
AcDbLine
 10
222.1460950538
 20
272.0008488769
 30
0.0
 11
218.7110793754
 21
272.0008488769
 31
0.0
  0
LINE
  5
178
330
1F
100
AcDbEntity
  8
0
  6
Continuous
 62
     7
370
    15
100
AcDbLine
 10
218.0383217498
 20
272.0034984896
 30
0.0
 11
218.0383217498
 21
272.8008493806
 31
0.0
  0
LINE
  5
179
330
1F
100
AcDbEntity
  8
0
  6
Continuous
 62
     7
370
    15
100
AcDbLine
 10
222.1460950538
 20
272.8008493806
 30
0.0
 11
218.0383217498
 21
272.8008493806
 31
0.0
  0
LINE
  5
17A
330
1F
100
AcDbEntity
  8
0
  6
Continuous
 62
     7
370
    15
100
AcDbLine
 10
216.146090345
 20
287.2008491332
 30
0.0
 11
218.0383217498
 21
287.2008491332
 31
0.0
  0
LINE
  5
17B
330
1F
100
AcDbEntity
  8
0
  6
Continuous
 62
     7
370
    15
100
AcDbLine
 10
216.146090345
 20
272.8008493806
 30
0.0
 11
218.0383217498
 21
272.8008493806
 31
0.0
  0
LINE
  5
17C
330
1F
100
AcDbEntity
  8
0
  6
Continuous
 62
     7
370
    15
100
AcDbLine
 10
217.2160905763
 20
288.3008491273
 30
0.0
 11
221.6160905525
 21
288.3008491273
 31
0.0
  0
LINE
  5
17D
330
1F
100
AcDbEntity
  8
0
  6
Continuous
 62
     7
370
    15
100
AcDbLine
 10
217.3160922691
 20
271.2008493046
 30
0.0
 11
221.5160963103
 21
271.2008493046
 31
0.0
  0
LINE
  5
17E
330
1F
100
AcDbEntity
  8
0
  6
Continuous
 62
     7
370
    15
100
AcDbLine
 10
217.3160922691
 20
271.6008495564
 30
0.0
 11
221.5160963103
 21
271.6008495564
 31
0.0
  0
LINE
  5
17F
330
1F
100
AcDbEntity
  8
0
  6
Continuous
 62
     7
370
    15
100
AcDbLine
 10
186.3075134322
 20
287.2008491332
 30
0.0
 11
184.3180333241
 21
287.2008491332
 31
0.0
  0
LINE
  5
180
330
1F
100
AcDbEntity
  8
0
  6
Continuous
 62
     7
370
    15
100
AcDbLine
 10
186.3075134322
 20
272.8008493806
 30
0.0
 11
186.3075134322
 21
287.2008491332
 31
0.0
  0
LINE
  5
181
330
1F
100
AcDbEntity
  8
0
  6
Continuous
 62
     7
370
    15
100
AcDbLine
 10
184.3180333241
 20
272.8008493806
 30
0.0
 11
186.3075134322
 21
272.8008493806
 31
0.0
  0
ARC
  5
182
330
1F
100
AcDbEntity
  8
0
  6
Continuous
 62
     7
370
    15
100
AcDbCircle
 10
199.6120376574
 20
280.0008492569
 30
0.0
 40
16.90403995399235
100
AcDbArc
 50
154.7902236235
 51
205.2097763765
  0
SPLINE
  5
183
330
1F
100
AcDbEntity
  8
0
  6
Continuous
 62
     7
370
    15
100
AcDbSpline
210
0.0
220
0.0
230
1.0
 70
     8
 71
     3
 72
    12
 73
     8
 74
     0
 42
0.00000001
 43
0.00000001
 40
0.0
 40
0.0
 40
0.0
 40
0.0
 40
0.1818723398322498
 40
0.3633441453432144
 40
0.5550803379662396
 40
0.7712613770059432
 40
1.0
 40
1.0
 40
1.0
 40
1.0
 10
184.4504115148967
 20
272.0008488769201
 30
0.0
 10
184.4742723426637
 20
272.0081705266838
 30
0.0
 10
184.5219414499078
 20
272.022797701868
 30
0.0
 10
184.536678534964
 20
272.1347876947513
 30
0.0
 10
184.509454508189
 20
272.3041793869108
 30
0.0
 10
184.4377742556511
 20
272.5326037976287
 30
0.0
 10
184.3586909934643
 20
272.7097674082619
 30
0.0
 10
184.3180333241408
 20
272.8008493805794
 30
0.0
  0
LINE
  5
184
330
1F
100
AcDbEntity
  8
0
  6
Continuous
 62
     7
370
    15
100
AcDbLine
 10
184.0660472378
 20
272.7553482192
 30
0.0
 11
184.4204937085
 21
272.0008488769
 31
0.0
  0
ARC
  5
185
330
1F
100
AcDbEntity
  8
0
  6
Continuous
 62
     7
370
    15
100
AcDbCircle
 10
199.3367541789
 20
280.0008492569
 30
0.0
 40
16.90241922828408
100
AcDbArc
 50
154.6170368419
 51
205.3829631581
  0
LINE
  5
186
330
1F
100
AcDbEntity
  8
0
  6
Continuous
 62
     7
370
    15
100
AcDbLine
 10
184.4204937085
 20
288.0008496369
 30
0.0
 11
184.0660472378
 21
287.2463502946
 31
0.0
  0
SPLINE
  5
187
330
1F
100
AcDbEntity
  8
0
  6
Continuous
 62
     7
370
    15
100
AcDbSpline
210
0.0
220
0.0
230
1.0
 70
     8
 71
     3
 72
    12
 73
     8
 74
     0
 42
0.00000001
 43
0.00000001
 40
0.0
 40
0.0
 40
0.0
 40
0.0
 40
0.2510216974581
 40
0.5023984045762419
 40
0.7402768941595013
 40
0.9473179129745757
 40
1.0
 40
1.0
 40
1.0
 40
1.0
 10
184.3180333241408
 20
287.2008491332201
 30
0.0
 10
184.3623500200333
 20
287.3007313910694
 30
0.0
 10
184.451046087098
 20
287.5006371661362
 30
0.0
 10
184.5260542148527
 20
287.7593704969838
 30
0.0
 10
184.5375339752027
 20
287.9366052899693
 30
0.0
 10
184.4959020395333
 20
287.9970483674844
 30
0.0
 10
184.4580827567085
 20
288.0002086142279
 30
0.0
 10
184.4504115148967
 20
288.0008496368794
 30
0.0
  0
LINE
  5
188
330
1F
100
AcDbEntity
  8
0
  6
Continuous
 62
     7
370
    15
100
AcDbLine
 10
184.4504115149
 20
288.0008496369
 30
0.0
 11
184.4204937085
 21
288.0008496369
 31
0.0
  0
LINE
  5
189
330
1F
100
AcDbEntity
  8
0
  6
Continuous
 62
     7
370
    15
100
AcDbLine
 10
184.4504115149
 20
272.0008488769
 30
0.0
 11
184.4204937085
 21
272.0008488769
 31
0.0
  0
LWPOLYLINE
  5
18A
330
1F
100
AcDbEntity
  8
0
  6
Continuous
 62
     7
370
    15
100
AcDbPolyline
 90
        9
 70
   128
 43
0.0
 10
186.3075134322
 20
287.2008491332
 10
186.3022533223
 20
287.3569215673
 10
186.2866853341
 20
287.5069958183
 10
186.2613980636
 20
287.6453056025
 10
186.227371262
 20
287.766534465
 10
186.185908781
 20
287.8660248617
 10
186.1386050447
 20
287.9399532477
 10
186.0872742697
 20
287.9854772265
 10
186.033894585
 20
288.0008496369
  0
LINE
  5
18B
330
1F
100
AcDbEntity
  8
0
  6
Continuous
 62
     7
370
    15
100
AcDbLine
 10
184.4504115149
 20
288.0008496369
 30
0.0
 11
186.033894585
 21
288.0008496369
 31
0.0
  0
LWPOLYLINE
  5
18C
330
1F
100
AcDbEntity
  8
0
  6
Continuous
 62
     7
370
    15
100
AcDbPolyline
 90
        9
 70
   128
 43
0.0
 10
186.3075134322
 20
272.8008493806
 10
186.3022533223
 20
272.6447769465
 10
186.2866853341
 20
272.4947026955
 10
186.2613980636
 20
272.3563929113
 10
186.227371262
 20
272.2351640488
 10
186.185908781
 20
272.1356736521
 10
186.1386050447
 20
272.0617452661
 10
186.0872742697
 20
272.0162212873
 10
186.033894585
 20
272.0008488769
  0
LINE
  5
18D
330
1F
100
AcDbEntity
  8
0
  6
Continuous
 62
     7
370
    15
100
AcDbLine
 10
186.033894585
 20
272.0008488769
 30
0.0
 11
184.4504115149
 21
272.0008488769
 31
0.0
  0
LINE
  5
18E
330
1F
100
AcDbEntity
  8
0
  6
Continuous
 62
     7
370
    15
100
AcDbLine
 10
186.3075134322
 20
272.8008493806
 30
0.0
 11
191.2063595816
 21
272.8008493806
 31
0.0
  0
LINE
  5
18F
330
1F
100
AcDbEntity
  8
0
  6
Continuous
 62
     7
370
    15
100
AcDbLine
 10
191.3452793821
 20
272.0008488769
 30
0.0
 11
186.033894585
 21
272.0008488769
 31
0.0
  0
LINE
  5
190
330
1F
100
AcDbEntity
  8
0
  6
Continuous
 62
     7
370
    15
100
AcDbLine
 10
191.2063595816
 20
287.2008491332
 30
0.0
 11
186.3075134322
 21
287.2008491332
 31
0.0
  0
LINE
  5
191
330
1F
100
AcDbEntity
  8
0
  6
Continuous
 62
     7
370
    15
100
AcDbLine
 10
186.033894585
 20
288.0008496369
 30
0.0
 11
191.3452793821
 21
288.0008496369
 31
0.0
  0
SPLINE
  5
192
330
1F
100
AcDbEntity
  8
0
  6
Continuous
 62
     7
370
    15
100
AcDbSpline
210
0.0
220
0.0
230
1.0
 70
     8
 71
     3
 72
    16
 73
    12
 74
     0
 42
0.00000001
 43
0.00000001
 40
0.0
 40
0.0
 40
0.0
 40
0.0
 40
0.1207071566778238
 40
0.2414138026719941
 40
0.3621183649329968
 40
0.4828244334300237
 40
0.6035304010997716
 40
0.7242373113019833
 40
0.844942319259683
 40
0.9656485835513967
 40
0.9999999999999999
 40
0.9999999999999999
 40
0.9999999999999999
 40
0.9999999999999999
 10
217.5883886381572
 20
267.0484777564673
 30
0.0
 10
217.6077927783103
 20
267.0511500495584
 30
0.0
 10
217.6466009765221
 20
267.0564946244347
 30
0.0
 10
217.6515207095677
 20
267.3474364307148
 30
0.0
 10
217.6143104376245
 20
267.800786826947
 30
0.0
 10
217.5373946688863
 20
268.3683068525648
 30
0.0
 10
217.4335801630079
 20
268.9566351981027
 30
0.0
 10
217.3174727035459
 20
269.4833277298951
 30
0.0
 10
217.2104757209553
 20
269.8466194791844
 30
0.0
 10
217.1378991520063
 20
270.0170841892804
 30
0.0
 10
217.1183487994105
 20
269.9839336220495
 30
0.0
 10
217.1140176221316
 20
269.976589458671
 30
0.0
  0
SPLINE
  5
193
330
1F
100
AcDbEntity
  8
0
  6
Continuous
 62
     7
370
    15
100
AcDbSpline
210
0.0
220
0.0
230
1.0
 70
     8
 71
     3
 72
    16
 73
    12
 74
     0
 42
0.00000001
 43
0.00000001
 40
0.0
 40
0.0
 40
0.0
 40
0.0
 40
0.1205802411602237
 40
0.2411629109963146
 40
0.3617457346389094
 40
0.4823269915945776
 40
0.6029090903734641
 40
0.7234904472457391
 40
0.8440739113133716
 40
0.964656251032841
 40
1.0
 40
1.0
 40
1.0
 40
1.0
 10
217.7589771315043
 20
292.9245015630988
 30
0.0
 10
217.7783821433763
 20
292.9218287513548
 30
0.0
 10
217.8171925579678
 20
292.9164830740321
 30
0.0
 10
217.8220986757863
 20
292.625539074695
 30
0.0
 10
217.7848929052889
 20
292.1722003460559
 30
0.0
 10
217.7079760496364
 20
291.6046709238813
 30
0.0
 10
217.6041579169321
 20
291.0163394561859
 30
0.0
 10
217.4880685890449
 20
290.489682587703
 30
0.0
 10
217.3810379784236
 20
290.1262108438577
 30
0.0
 10
217.3082878072723
 20
289.9556629144744
 30
0.0
 10
217.2886359228208
 20
289.9892483118712
 30
0.0
 10
217.2841814323848
 20
289.9968611101178
 30
0.0
  0
SPLINE
  5
194
330
1F
100
AcDbEntity
  8
0
  6
Continuous
 62
     7
370
    15
100
AcDbSpline
210
0.0
220
0.0
230
1.0
 70
     8
 71
     3
 72
    16
 73
    12
 74
     0
 42
0.00000001
 43
0.00000001
 40
0.0
 40
0.0
 40
0.0
 40
0.0
 40
0.1205149578428766
 40
0.2410324495601319
 40
0.3615498425755169
 40
0.4820660117024153
 40
0.6025828261582217
 40
0.7230988991090922
 40
0.8436170781144643
 40
0.9641341610538745
 40
1.0
 40
1.0
 40
1.0
 40
1.0
 10
233.1293609901851
 20
269.6648962820439
 30
0.0
 10
233.1487652139055
 20
269.6675690293916
 30
0.0
 10
233.1875740693278
 20
269.6729145802827
 30
0.0
 10
233.1924919856388
 20
269.9638596389114
 30
0.0
 10
233.1552860553434
 20
270.4171984997416
 30
0.0
 10
233.0783576851569
 20
270.9847248053183
 30
0.0
 10
232.9745416471007
 20
271.5730641953123
 30
0.0
 10
232.8584552412106
 20
272.0996938289524
 30
0.0
 10
232.7514107832979
 20
272.4632669379586
 30
0.0
 10
232.6785582889197
 20
272.6338592907742
 30
0.0
 10
232.6588656560195
 20
272.6000443366324
 30
0.0
 10
232.6543492242282
 20
272.59228900322
 30
0.0
  0
SPLINE
  5
195
330
1F
100
AcDbEntity
  8
0
  6
Continuous
 62
     7
370
    15
100
AcDbSpline
210
0.0
220
0.0
230
1.0
 70
     8
 71
     3
 72
    16
 73
    12
 74
     0
 42
0.00000001
 43
0.00000001
 40
0.0
 40
0.0
 40
0.0
 40
0.0
 40
0.1205148032021358
 40
0.2410321808312816
 40
0.3615495485090808
 40
0.4820656771210895
 40
0.6025824662394319
 40
0.723098808852727
 40
0.8436169625203481
 40
0.9641311157927398
 40
1.0
 40
1.0
 40
1.0
 40
1.0
 10
233.2999494835323
 20
290.3080830375222
 30
0.0
 10
233.3193505028452
 20
290.3054101910403
 30
0.0
 10
233.358152955914
 20
290.3000644409793
 30
0.0
 10
233.3630742283831
 20
290.0091206851075
 30
0.0
 10
233.3258644287896
 20
289.555782035205
 30
0.0
 10
233.2489482095572
 20
288.9882542511098
 30
0.0
 10
233.1451320281384
 20
288.3999143353716
 30
0.0
 10
233.0290336151068
 20
287.8732861301945
 30
0.0
 10
232.9219945654829
 20
287.5097156452744
 30
0.0
 10
232.8491368355532
 20
287.3391203249396
 30
0.0
 10
232.8294465422916
 20
287.3729348860043
 30
0.0
 10
232.8249302669948
 20
287.3806907820074
 30
0.0
  0
SPLINE
  5
196
330
1F
100
AcDbEntity
  8
0
  6
Continuous
 62
     7
370
    15
100
AcDbSpline
210
0.0
220
0.0
230
1.0
 70
    24
 71
     3
 72
    16
 73
    12
 74
     0
 42
0.00000001
 43
0.00000001
 40
0.0
 40
0.0
 40
0.0
 40
0.0
 40
0.06110719973516
 40
0.1864695300788104
 40
0.3118329657763518
 40
0.437195435243349
 40
0.562558541947342
 40
0.6879211427057613
 40
0.8132845673515391
 40
0.9386470368185362
 40
1.0
 40
1.0
 40
1.0
 40
1.0
 10
236.2062794133609
 20
273.1346135052411
 30
0.0
 10
236.2120527700731
 20
273.1346135052411
 30
0.0
 10
236.2296702540647
 20
273.1346135052411
 30
0.0
 10
236.0112352571796
 20
273.1346135052411
 30
0.0
 10
235.5984919779607
 20
273.1346135052411
 30
0.0
 10
235.0420267940015
 20
273.1346135052411
 30
0.0
 10
234.4429251306732
 20
273.1346135052411
 30
0.0
 10
233.884212051946
 20
273.1346135052411
 30
0.0
 10
233.4672751180508
 20
273.1346135052411
 30
0.0
 10
233.2442719208446
 20
273.1346135052411
 30
0.0
 10
233.2590874747635
 20
273.1346135052411
 30
0.0
 10
233.2639557286685
 20
273.1346135052411
 30
0.0
  0
SPLINE
  5
197
330
1F
100
AcDbEntity
  8
0
  6
Continuous
 62
     7
370
    15
100
AcDbSpline
210
0.0
220
0.0
230
1.0
 70
    24
 71
     3
 72
    16
 73
    12
 74
     0
 42
0.00000001
 43
0.00000001
 40
0.0
 40
0.0
 40
0.0
 40
0.0
 40
0.061009639381562
 40
0.1861718232068119
 40
0.3113351106212064
 40
0.4364974333476865
 40
0.5616603922937852
 40
0.686822846102075
 40
0.8119861224823502
 40
0.9371484452088304
 40
1.0
 40
1.0
 40
1.0
 40
1.0
 10
236.2062794133609
 20
286.6932443367807
 30
0.0
 10
236.2120527638058
 20
286.6932443367807
 30
0.0
 10
236.2296702286726
 20
286.6932443367807
 30
0.0
 10
236.0112354925888
 20
286.6932443367807
 30
0.0
 10
235.5984911154506
 20
286.6932443367807
 30
0.0
 10
235.0420300086099
 20
286.6932443367807
 30
0.0
 10
234.4429131346937
 20
286.6932443367807
 30
0.0
 10
233.8842568211584
 20
286.6932443367807
 30
0.0
 10
233.4671080364533
 20
286.6932443367807
 30
0.0
 10
233.2436215977278
 20
286.6932443367807
 30
0.0
 10
233.2588333178371
 20
286.6932443367807
 30
0.0
 10
233.2639184757655
 20
286.6932443367807
 30
0.0
  0
SPLINE
  5
198
330
1F
100
AcDbEntity
  8
0
  6
Continuous
 62
     7
370
    15
100
AcDbSpline
210
0.0
220
0.0
230
1.0
 70
     8
 71
     3
 72
    19
 73
    15
 74
     0
 42
0.00000001
 43
0.00000001
 40
0.0
 40
0.0
 40
0.0
 40
0.0
 40
0.0039549809995185
 40
0.1157678183369959
 40
0.2280434424084984
 40
0.3355203096827233
 40
0.4377089451909085
 40
0.5348834340354809
 40
0.6283049581358076
 40
0.730298511094365
 40
0.8413364998007737
 40
0.96412105011313
 40
0.9937658791727169
 40
1.0
 40
1.0
 40
1.0
 40
1.0
 10
222.5343671604579
 20
285.6008490572242
 30
0.0
 10
222.5347619488865
 20
285.6008434443965
 30
0.0
 10
222.5463179576498
 20
285.6006791490902
 30
0.0
 10
222.5695489472204
 20
285.5855487827876
 30
0.0
 10
222.613036495116
 20
285.5186516422603
 30
0.0
 10
222.6510261006366
 20
285.4139561086685
 30
0.0
 10
222.674517403186
 20
285.2888791993644
 30
0.0
 10
222.6858475972458
 20
285.1604434533261
 30
0.0
 10
222.6864405803746
 20
285.0392688424578
 30
0.0
 10
222.6706706750431
 20
284.930043343836
 30
0.0
 10
222.6302909709834
 20
284.8406263618791
 30
0.0
 10
222.5784242387867
 20
284.8055718952049
 30
0.0
 10
222.5437200698182
 20
284.8009623667801
 30
0.0
 10
222.5357516989409
 20
284.8008661951237
 30
0.0
 10
222.5343671604579
 20
284.8008494848875
 30
0.0
  0
SPLINE
  5
199
330
1F
100
AcDbEntity
  8
0
  6
Continuous
 62
     7
370
    15
100
AcDbSpline
210
0.0
220
0.0
230
1.0
 70
     8
 71
     3
 72
    30
 73
    26
 74
     0
 42
0.00000001
 43
0.00000001
 40
0.0
 40
0.0
 40
0.0
 40
0.0
 40
0.1247112310147824
 40
0.2494130785656202
 40
0.3741280601702755
 40
0.4367858391931411
 40
0.4681550721330039
 40
0.4838427846542153
 40
0.4916894992656079
 40
0.4956138377050519
 40
0.4975728235122767
 40
0.4985522983263023
 40
0.4990422673122084
 40
0.4992870926954017
 40
0.4994095487741307
 40
0.4994707335600724
 40
0.4995013259530433
 40
0.4995195680690418
 40
0.4995320416496219
 40
0.5609187714698142
 40
0.6646254983300477
 40
0.7325782071981156
 40
0.811145407748365
 40
0.9002973933763253
 40
1.0
 40
1.0
 40
1.0
 40
1.0
 10
222.6060640975421
 20
285.6607410150139
 30
0.0
 10
222.6118309294704
 20
285.6589484640538
 30
0.0
 10
222.6233641594217
 20
285.6553634970078
 30
0.0
 10
222.7132128409924
 20
285.6335203247222
 30
0.0
 10
222.8206847274528
 20
285.6078422674083
 30
0.0
 10
222.9062381407382
 20
285.5874308972921
 30
0.0
 10
222.9503403925301
 20
285.5768959286893
 30
0.0
 10
222.9725660756807
 20
285.5715769923702
 30
0.0
 10
222.9836995715935
 20
285.5689114065659
 30
0.0
 10
222.98926987153
 20
285.5675788878921
 30
0.0
 10
222.9920536044628
 20
285.5669101043028
 30
0.0
 10
222.9934450203285
 20
285.5665776303233
 30
0.0
 10
222.9941397412213
 20
285.566409273007
 30
0.0
 10
222.9944878283831
 20
285.5663270073076
 30
0.0
 10
222.9946614223597
 20
285.5662843686608
 30
0.0
 10
222.9947485733984
 20
285.5662645123496
 30
0.0
 10
222.994792975763
 20
285.5662528503187
 30
0.0
 10
222.9948182947765
 20
285.5662487350438
 30
0.0
 10
223.0191329355748
 20
285.5580545513747
 30
0.0
 10
223.0876261330594
 20
285.54732887554
 30
0.0
 10
223.1779285306819
 20
285.5257989842858
 30
0.0
 10
223.2615922580388
 20
285.5089292079907
 30
0.0
 10
223.325114163408
 20
285.495971412455
 30
0.0
 10
223.3756288550418
 20
285.4863473973773
 30
0.0
 10
223.3828591926644
 20
285.4858824600227
 30
0.0
 10
223.386676327843
 20
285.4856370041637
 30
0.0
  0
ELLIPSE
  5
19A
330
1F
100
AcDbEntity
  8
0
  6
Continuous
 62
     7
370
    15
100
AcDbEllipse
 10
223.263201812
 20
286.7828244356
 30
0.0
 11
0.3906095144045878
 21
-0.0861638396116291
 31
0.0
210
0.0
220
0.0
230
1.0
 40
0.0142285888
 41
0.0
 42
6.283185307179586
  0
LINE
  5
19B
330
1F
100
AcDbEntity
  8
0
  6
Continuous
 62
     7
370
    15
100
AcDbLine
 10
222.4360940024
 20
286.750849432
 30
0.0
 11
216.2360933587
 21
286.750849432
 31
0.0
  0
LINE
  5
19C
330
1F
100
AcDbEntity
  8
0
  6
Continuous
 62
     7
370
    15
100
AcDbLine
 10
222.4360940024
 20
286.750849432
 30
0.0
 11
222.4360940024
 21
285.7508492681
 31
0.0
  0
LINE
  5
19D
330
1F
100
AcDbEntity
  8
0
  6
Continuous
 62
     7
370
    15
100
AcDbLine
 10
222.4360940024
 20
285.7508492681
 30
0.0
 11
216.2360933587
 21
285.7508492681
 31
0.0
  0
LINE
  5
19E
330
1F
100
AcDbEntity
  8
0
  6
Continuous
 62
     7
370
    15
100
AcDbLine
 10
216.2360933587
 20
286.750849432
 30
0.0
 11
216.2360933587
 21
285.7508492681
 31
0.0
  0
LINE
  5
19F
330
1F
100
AcDbEntity
  8
0
  6
Continuous
 62
     7
370
    15
100
AcDbLine
 10
222.4360940024
 20
274.2508492457
 30
0.0
 11
222.4360940024
 21
273.2508490818
 31
0.0
  0
LINE
  5
1A0
330
1F
100
AcDbEntity
  8
0
  6
Continuous
 62
     7
370
    15
100
AcDbLine
 10
222.4360940024
 20
273.2508490818
 30
0.0
 11
216.2360933587
 21
273.2508490818
 31
0.0
  0
LINE
  5
1A1
330
1F
100
AcDbEntity
  8
0
  6
Continuous
 62
     7
370
    15
100
AcDbLine
 10
216.2360933587
 20
274.2508492457
 30
0.0
 11
216.2360933587
 21
273.2508490818
 31
0.0
  0
LINE
  5
1A2
330
1F
100
AcDbEntity
  8
0
  6
Continuous
 62
     7
370
    15
100
AcDbLine
 10
222.4360940024
 20
274.2508492457
 30
0.0
 11
216.2360933587
 21
274.2508492457
 31
0.0
  0
LWPOLYLINE
  5
1A3
330
1F
100
AcDbEntity
  8
0
  6
Continuous
 62
     7
370
    15
100
AcDbPolyline
 90
        3
 70
   128
 43
0.0
 10
216.1573928758
 20
273.6397107156
 10
216.1599707767
 20
273.6335327873
 10
216.2360933587
 20
273.2508490818
  0
LWPOLYLINE
  5
1A4
330
1F
100
AcDbEntity
  8
0
  6
Continuous
 62
     7
370
    15
100
AcDbPolyline
 90
        3
 70
   128
 43
0.0
 10
216.2360933587
 20
286.750849432
 10
216.1599707767
 20
286.3681657264
 10
216.1573928758
 20
286.3619877982
  0
LINE
  5
1A5
330
1F
100
AcDbEntity
  8
0
  6
Continuous
 62
     7
370
    15
100
AcDbLine
 10
222.4360940024
 20
285.7508492681
 30
0.0
 11
222.4360940024
 21
285.6008490572
 31
0.0
  0
LINE
  5
1A6
330
1F
100
AcDbEntity
  8
0
  6
Continuous
 62
     7
370
    15
100
AcDbLine
 10
222.4360940024
 20
284.8008494849
 30
0.0
 11
222.4360940024
 21
283.9008491511
 31
0.0
  0
LINE
  5
1A7
330
1F
100
AcDbEntity
  8
0
  6
Continuous
 62
     7
370
    15
100
AcDbLine
 10
222.4360940024
 20
275.3008493247
 30
0.0
 11
222.4360940024
 21
274.2508492457
 31
0.0
  0
LINE
  5
1A8
330
1F
100
AcDbEntity
  8
0
  6
Continuous
 62
     7
370
    15
100
AcDbLine
 10
154.4360931009
 20
465.0008516411
 30
0.0
 11
154.4360931009
 21
95.0008468727
 31
0.0
  0
LINE
  5
1A9
330
1F
100
AcDbEntity
  8
0
  6
Continuous
 62
     7
370
    15
100
AcDbLine
 10
154.4360931009
 20
95.0008468727
 30
0.0
 11
139.4360934361
 21
95.0008468727
 31
0.0
  0
LINE
  5
1AA
330
1F
100
AcDbEntity
  8
0
  6
Continuous
 62
     7
370
    15
100
AcDbLine
 10
139.4360934361
 20
465.0008516411
 30
0.0
 11
139.4360934361
 21
95.0008468727
 31
0.0
  0
LINE
  5
1AB
330
1F
100
AcDbEntity
  8
0
  6
Continuous
 62
     7
370
    15
100
AcDbLine
 10
139.4360934361
 20
465.0008516411
 30
0.0
 11
154.4360931009
 21
465.0008516411
 31
0.0
  0
LINE
  5
1AC
330
1F
100
AcDbEntity
  8
0
  6
Continuous
 62
     7
370
    15
100
AcDbLine
 10
154.4360931009
 20
95.0008468727
 30
0.0
 11
154.4360931009
 21
80.0008462767
 31
0.0
  0
ARC
  5
1AD
330
1F
100
AcDbEntity
  8
0
  6
Continuous
 62
     7
370
    15
100
AcDbCircle
 10
154.4360934183
 20
95.0008492569
 30
0.0
 40
15.00000000000001
100
AcDbArc
 50
180.0
 51
270.0
  0
ARC
  5
1AE
330
1F
100
AcDbEntity
  8
0
  6
Continuous
 62
     7
370
    15
100
AcDbCircle
 10
154.4360934183
 20
465.0008492569
 30
0.0
 40
15.00000000000006
100
AcDbArc
 50
90.0
 51
180.0
  0
LINE
  5
1AF
330
1F
100
AcDbEntity
  8
0
  6
Continuous
 62
     7
370
    15
100
AcDbLine
 10
154.4360931009
 20
480.0008522371
 30
0.0
 11
154.4360931009
 21
465.0008516411
 31
0.0
  0
LINE
  5
1B0
330
1F
100
AcDbEntity
  8
0
  6
Continuous
 62
     7
370
    15
100
AcDbLine
 10
235.4360905453
 20
95.0008468727
 30
0.0
 11
154.4360931009
 21
95.0008468727
 31
0.0
  0
LINE
  5
1B1
330
1F
100
AcDbEntity
  8
0
  6
Continuous
 62
     7
370
    15
100
AcDbLine
 10
235.4360905453
 20
95.0008468727
 30
0.0
 11
235.4360905453
 21
80.0008462767
 31
0.0
  0
LINE
  5
1B2
330
1F
100
AcDbEntity
  8
0
  6
Continuous
 62
     7
370
    15
100
AcDbLine
 10
235.4360905453
 20
80.0008462767
 30
0.0
 11
154.4360931009
 21
80.0008462767
 31
0.0
  0
LINE
  5
1B3
330
1F
100
AcDbEntity
  8
0
  6
Continuous
 62
     7
370
    15
100
AcDbLine
 10
235.4360905453
 20
480.0008522371
 30
0.0
 11
154.4360931009
 21
480.0008522371
 31
0.0
  0
LINE
  5
1B4
330
1F
100
AcDbEntity
  8
0
  6
Continuous
 62
     7
370
    15
100
AcDbLine
 10
235.4360905453
 20
480.0008522371
 30
0.0
 11
235.4360905453
 21
465.0008516411
 31
0.0
  0
LINE
  5
1B5
330
1F
100
AcDbEntity
  8
0
  6
Continuous
 62
     7
370
    15
100
AcDbLine
 10
235.4360905453
 20
465.0008516411
 30
0.0
 11
154.4360931009
 21
465.0008516411
 31
0.0
  0
LINE
  5
1B6
330
1F
100
AcDbEntity
  8
0
  6
Continuous
 62
     7
370
    15
100
AcDbLine
 10
215.4360947176
 20
288.0008496369
 30
0.0
 11
215.4360947176
 21
289.4602516691
 31
0.0
  0
LINE
  5
1B7
330
1F
100
AcDbEntity
  8
0
  6
Continuous
 62
     7
370
    15
100
AcDbLine
 10
215.4360947176
 20
292.8029676924
 30
0.0
 11
215.4360947176
 21
460.0008564095
 31
0.0
  0
LINE
  5
1B8
330
1F
100
AcDbEntity
  8
0
  6
Continuous
 62
     7
370
    15
100
AcDbLine
 10
215.4360947176
 20
460.0008564095
 30
0.0
 11
159.4360929891
 21
460.0008564095
 31
0.0
  0
LINE
  5
1B9
330
1F
100
AcDbEntity
  8
0
  6
Continuous
 62
     7
370
    15
100
AcDbLine
 10
159.4360929891
 20
460.0008564095
 30
0.0
 11
159.4360929891
 21
100.0008421043
 31
0.0
  0
LINE
  5
1BA
330
1F
100
AcDbEntity
  8
0
  6
Continuous
 62
     7
370
    15
100
AcDbLine
 10
215.4360947176
 20
100.0008421043
 30
0.0
 11
159.4360929891
 21
100.0008421043
 31
0.0
  0
LINE
  5
1BB
330
1F
100
AcDbEntity
  8
0
  6
Continuous
 62
     7
370
    15
100
AcDbLine
 10
215.4360947176
 20
100.0008421043
 30
0.0
 11
215.4360947176
 21
267.1883028025
 31
0.0
  0
LINE
  5
1BC
330
1F
100
AcDbEntity
  8
0
  6
Continuous
 62
     7
370
    15
100
AcDbLine
 10
215.4360947176
 20
270.528088885
 30
0.0
 11
215.4360947176
 21
272.0008488769
 31
0.0
  0
LINE
  5
1BD
330
1F
100
AcDbEntity
  8
0
  6
Continuous
 62
     7
370
    15
100
AcDbLine
 10
235.4360905453
 20
95.0008468727
 30
0.0
 11
235.4360905453
 21
270.9929417843
 31
0.0
  0
LINE
  5
1BE
330
1F
100
AcDbEntity
  8
0
  6
Continuous
 62
     7
370
    15
100
AcDbLine
 10
235.4360905453
 20
288.9767788375
 30
0.0
 11
235.4360905453
 21
465.0008516411
 31
0.0
  0
LINE
  5
1BF
330
1F
100
AcDbEntity
  8
0
  6
Continuous
 62
     7
370
    15
100
AcDbLine
 10
239.436091201
 20
100.0008421043
 30
0.0
 11
235.4360905453
 21
100.0008421043
 31
0.0
  0
LINE
  5
1C0
330
1F
100
AcDbEntity
  8
0
  6
Continuous
 62
     7
370
    15
100
AcDbLine
 10
239.436091201
 20
85.0008564095
 30
0.0
 11
235.4360905453
 21
85.0008564095
 31
0.0
  0
LINE
  5
1C1
330
1F
100
AcDbEntity
  8
0
  6
Continuous
 62
     7
370
    15
100
AcDbLine
 10
239.436091201
 20
475.0008421043
 30
0.0
 11
235.4360905453
 21
475.0008421043
 31
0.0
  0
LINE
  5
1C2
330
1F
100
AcDbEntity
  8
0
  6
Continuous
 62
     7
370
    15
100
AcDbLine
 10
239.436091201
 20
460.0008564095
 30
0.0
 11
235.4360905453
 21
460.0008564095
 31
0.0
  0
LINE
  5
1C3
330
1F
100
AcDbEntity
  8
0
  6
Continuous
 62
     7
370
    15
100
AcDbLine
 10
385.4025503261
 20
548.0088463188
 30
0.0
 11
386.602540837
 21
548.0088463188
 31
0.0
  0
LINE
  5
1C4
330
1F
100
AcDbEntity
  8
0
  6
Continuous
 62
     7
370
    15
100
AcDbLine
 10
385.3025486333
 20
550.5088439346
 30
0.0
 11
385.4025503261
 21
550.5088439346
 31
0.0
  0
LINE
  5
1C5
330
1F
100
AcDbEntity
  8
0
  6
Continuous
 62
     7
370
    15
100
AcDbLine
 10
385.4025503261
 20
556.5088486433
 30
0.0
 11
385.3025486333
 21
556.5088486433
 31
0.0
  0
LINE
  5
1C6
330
1F
100
AcDbEntity
  8
0
  6
Continuous
 62
     7
370
    15
100
AcDbLine
 10
381.1543037755
 20
613.5088449478
 30
0.0
 11
380.4025401933
 21
613.235229826
 31
0.0
  0
SPLINE
  5
1C7
330
1F
100
AcDbEntity
  8
0
  6
Continuous
 62
     7
370
    15
100
AcDbSpline
210
0.0
220
0.0
230
1.0
 70
     8
 71
     3
 72
    15
 73
    11
 74
     0
 42
0.00000001
 43
0.00000001
 40
0.0
 40
0.0
 40
0.0
 40
0.0
 40
0.1250744365219807
 40
0.2501503690700617
 40
0.3752914238507727
 40
0.5003033456113692
 40
0.6252875688433512
 40
0.7502617631629114
 40
0.8750784298966161
 40
0.9999999999999999
 40
0.9999999999999999
 40
0.9999999999999999
 40
0.9999999999999999
 10
384.2169841391645
 20
578.5666799307205
 30
0.0
 10
384.1908591573051
 20
578.8254415072957
 30
0.0
 10
384.138608881103
 20
579.3429677555155
 30
0.0
 10
384.0597416098456
 20
580.1240804281772
 30
0.0
 10
383.9853097344489
 20
580.8612615241477
 30
0.0
 10
383.9183185243857
 20
581.5248379476133
 30
0.0
 10
383.862211782013
 20
582.0806011663948
 30
0.0
 10
383.8196698229913
 20
582.5016974488028
 30
0.0
 10
383.7908437169347
 20
582.7873050035471
 30
0.0
 10
383.7865011296184
 20
582.8303399487789
 30
0.0
 10
383.7843289239011
 20
582.8518664598801
 30
0.0
  0
SPLINE
  5
1C8
330
1F
100
AcDbEntity
  8
0
  6
Continuous
 62
     7
370
    15
100
AcDbSpline
210
0.0
220
0.0
230
1.0
 70
     8
 71
     3
 72
    15
 73
    11
 74
     0
 42
0.00000001
 43
0.00000001
 40
0.0
 40
0.0
 40
0.0
 40
0.0
 40
0.124939617022092
 40
0.2497688509603433
 40
0.374751241408195
 40
0.4997376030196825
 40
0.6247470132670949
 40
0.7498793343755585
 40
0.8749425669552483
 40
1.0
 40
1.0
 40
1.0
 40
1.0
 10
380.8000882727704
 20
582.5504830241539
 30
0.0
 10
380.8022649969944
 20
582.5289048624861
 30
0.0
 10
380.8066165223249
 20
582.4857676032718
 30
0.0
 10
380.8354625835911
 20
582.2000572563215
 30
0.0
 10
380.8779988262668
 20
581.7788737591934
 30
0.0
 10
380.9341057190015
 20
581.2230978172023
 30
0.0
 10
381.0011014630184
 20
580.5595759859647
 30
0.0
 10
381.0755125743144
 20
579.8225267044271
 30
0.0
 10
381.1543709907615
 20
579.0416166343508
 30
0.0
 10
381.2065998577375
 20
578.5242595912317
 30
0.0
 10
381.2327136857114
 20
578.2655870676376
 30
0.0
  0
LINE
  5
1C9
330
1F
100
AcDbEntity
  8
0
  6
Continuous
 62
     7
370
    15
100
AcDbLine
 10
381.2324305636
 20
578.2654529572
 30
0.0
 11
382.8015079362
 21
562.7244806052
 31
0.0
  0
LINE
  5
1CA
330
1F
100
AcDbEntity
  8
0
  6
Continuous
 62
     7
370
    15
100
AcDbLine
 10
385.7863297326
 20
563.0258416891
 30
0.0
 11
384.2172672612
 21
578.5668140412
 31
0.0
  0
SPLINE
  5
1CB
330
1F
100
AcDbEntity
  8
0
  6
Continuous
 62
     7
370
    15
100
AcDbSpline
210
0.0
220
0.0
230
1.0
 70
     8
 71
     3
 72
     9
 73
     5
 74
     0
 42
0.00000001
 43
0.00000001
 40
0.0
 40
0.0
 40
0.0
 40
0.0
 40
0.4837383992592056
 40
0.9999999999999999
 40
0.9999999999999999
 40
0.9999999999999999
 40
0.9999999999999999
 10
382.9715897900663
 20
561.0431080818512
 30
0.0
 10
382.9810503675014
 20
560.9788766017284
 30
0.0
 10
383.0006075857202
 20
560.8460951640316
 30
0.0
 10
383.034450271123
 20
560.8099475390115
 30
0.0
 10
383.0519219500623
 20
560.7912859082558
 30
0.0
  0
SPLINE
  5
1CC
330
1F
100
AcDbEntity
  8
0
  6
Continuous
 62
     7
370
    15
100
AcDbSpline
210
0.0
220
0.0
230
1.0
 70
     8
 71
     3
 72
    11
 73
     7
 74
     0
 42
0.00000001
 43
0.00000001
 40
0.0
 40
0.0
 40
0.0
 40
0.0
 40
0.2484400313536671
 40
0.4978858035227358
 40
0.7483872183351494
 40
1.0
 40
1.0
 40
1.0
 40
1.0
 10
382.8017910582624
 20
562.7246370673515
 30
0.0
 10
382.8198058701082
 20
562.5461654909419
 30
0.0
 10
382.8559084217877
 20
562.1884998452629
 30
0.0
 10
382.902901307834
 20
561.7236633637256
 30
0.0
 10
382.9417299879269
 20
561.3407830006983
 30
0.0
 10
382.9567577226939
 20
561.1934881389028
 30
0.0
 10
382.9642882210813
 20
561.1196776986458
 30
0.0
  0
SPLINE
  5
1CD
330
1F
100
AcDbEntity
  8
0
  6
Continuous
 62
     7
370
    15
100
AcDbSpline
210
0.0
220
0.0
230
1.0
 70
     8
 71
     3
 72
    19
 73
    15
 74
     0
 42
0.00000001
 43
0.00000001
 40
0.0
 40
0.0
 40
0.0
 40
0.0
 40
0.080281755629487
 40
0.1534415944044286
 40
0.2193411972437899
 40
0.2779493423871587
 40
0.3728442556420708
 40
0.4421532682602004
 40
0.5315367006395667
 40
0.6554833364437546
 40
0.7303570865728389
 40
0.8130797286521475
 40
0.9031427835411386
 40
1.0
 40
1.0
 40
1.0
 40
1.0
 10
382.9872360093198
 20
560.9604662418701
 30
0.0
 10
383.0225955989525
 20
560.8375893352037
 30
0.0
 10
383.0901779751496
 20
560.6027361194692
 30
0.0
 10
383.2874106175615
 20
560.3083287201569
 30
0.0
 10
383.5122567008505
 20
560.0841973238679
 30
0.0
 10
383.8079295714053
 20
559.8911680920816
 30
0.0
 10
384.1498723870524
 20
559.773249764912
 30
0.0
 10
384.5596270313037
 20
559.7434654181577
 30
0.0
 10
384.9987140831839
 20
559.845758345295
 30
0.0
 10
385.385255904844
 20
560.0969894611085
 30
0.0
 10
385.6780942256928
 20
560.4377119318234
 30
0.0
 10
385.8588594366871
 20
560.7931800087979
 30
0.0
 10
385.9647844110766
 20
561.2201163754855
 30
0.0
 10
385.9325131487392
 20
561.5151822381489
 30
0.0
 10
385.9157910210691
 20
561.6680776834824
 30
0.0
  0
SPLINE
  5
1CE
330
1F
100
AcDbEntity
  8
0
  6
Continuous
 62
     7
370
    15
100
AcDbSpline
210
0.0
220
0.0
230
1.0
 70
     8
 71
     3
 72
    11
 73
     7
 74
     0
 42
0.00000001
 43
0.00000001
 40
0.0
 40
0.0
 40
0.0
 40
0.0
 40
0.2477436400961851
 40
0.4969471568772039
 40
0.7476766819245632
 40
1.0
 40
1.0
 40
1.0
 40
1.0
 10
385.9395732743345
 20
561.5004023671486
 30
0.0
 10
385.9331311894786
 20
561.5650284004248
 30
0.0
 10
385.9202090585524
 20
561.6946612882131
 30
0.0
 10
385.8842560232759
 20
562.0525278214184
 30
0.0
 10
385.8392713353576
 20
562.4988543180416
 30
0.0
 10
385.803835542649
 20
562.8497192834631
 30
0.0
 10
385.7860615117154
 20
563.0257075786926
 30
0.0
  0
LINE
  5
1CF
330
1F
100
AcDbEntity
  8
0
  6
Continuous
 62
     7
370
    15
100
AcDbLine
 10
386.0698541267
 20
572.6805126429
 30
0.0
 11
386.0698392255
 21
572.9803314567
 31
0.0
  0
LINE
  5
1D0
330
1F
100
AcDbEntity
  8
0
  6
Continuous
 62
     7
370
    15
100
AcDbLine
 10
385.2698405845
 20
572.9803314567
 30
0.0
 11
385.2698405845
 21
572.6829638839
 31
0.0
  0
SPLINE
  5
1D1
330
1F
100
AcDbEntity
  8
0
  6
Continuous
 62
     7
370
    15
100
AcDbSpline
210
0.0
220
0.0
230
1.0
 70
    24
 71
     3
 72
    11
 73
     7
 74
     0
 42
0.00000001
 43
0.00000001
 40
0.0
 40
0.0
 40
0.0
 40
0.0
 40
0.0207833414794417
 40
0.3465559490330116
 40
0.6711464500042603
 40
0.9999999999999999
 40
0.9999999999999999
 40
0.9999999999999999
 40
0.9999999999999999
 10
385.269840584477
 20
573.266649818454
 30
0.0
 10
385.269840584477
 20
573.2633281059583
 30
0.0
 10
385.2698405844772
 20
573.2079395522209
 30
0.0
 10
385.269840584477
 20
573.1147071644455
 30
0.0
 10
385.269840584477
 20
573.0019921794091
 30
0.0
 10
385.269840584477
 20
572.9674754227005
 30
0.0
 10
385.269840584477
 20
572.9501044512131
 30
0.0
  0
SPLINE
  5
1D2
330
1F
100
AcDbEntity
  8
0
  6
Continuous
 62
     7
370
    15
100
AcDbSpline
210
0.0
220
0.0
230
1.0
 70
    24
 71
     3
 72
    11
 73
     7
 74
     0
 42
0.00000001
 43
0.00000001
 40
0.0
 40
0.0
 40
0.0
 40
0.0
 40
0.250483117174979
 40
0.4977293257689061
 40
0.7458640769072823
 40
1.0
 40
1.0
 40
1.0
 40
1.0
 10
386.0698541266523
 20
572.9476532101967
 30
0.0
 10
386.0698541266523
 20
572.9638670075273
 30
0.0
 10
386.0698541266523
 20
572.9960850767704
 30
0.0
 10
386.0698541266523
 20
573.1048693010093
 30
0.0
 10
386.0698541266524
 20
573.2437009075794
 30
0.0
 10
386.0698541266523
 20
573.3507276744566
 30
0.0
 10
386.0698541266523
 20
573.4048804402687
 30
0.0
  0
LINE
  5
1D3
330
1F
100
AcDbEntity
  8
0
  6
Continuous
 62
     7
370
    15
100
AcDbLine
 10
385.0631167752
 20
573.5088458419
 30
0.0
 11
385.2720310552
 21
573.2616206766
 31
0.0
  0
LINE
  5
1D4
330
1F
100
AcDbEntity
  8
0
  6
Continuous
 62
     7
370
    15
100
AcDbLine
 10
386.0698541267
 20
573.4048804403
 30
0.0
 11
386.0698541267
 21
573.5088458419
 31
0.0
  0
LINE
  5
1D5
330
1F
100
AcDbEntity
  8
0
  6
Continuous
 62
     7
370
    15
100
AcDbLine
 10
380.793457256
 20
582.6468711853
 30
0.0
 11
380.7778557403
 21
583.106095171
 31
0.0
  0
SPLINE
  5
1D6
330
1F
100
AcDbEntity
  8
0
  6
Continuous
 62
     7
370
    15
100
AcDbSpline
210
0.0
220
0.0
230
1.0
 70
     8
 71
     3
 72
    11
 73
     7
 74
     0
 42
0.00000001
 43
0.00000001
 40
0.0
 40
0.0
 40
0.0
 40
0.0
 40
0.1207586884497559
 40
0.4133941938278811
 40
0.7063576004656975
 40
1.0
 40
1.0
 40
1.0
 40
1.0
 10
382.8261395556531
 20
562.4834319711067
 30
0.0
 10
382.8360570498916
 20
562.3851315006699
 30
0.0
 10
382.8700076880452
 20
562.0486187060144
 30
0.0
 10
382.9173795020054
 20
561.579701011968
 30
0.0
 10
382.9602608006534
 20
561.154974423964
 30
0.0
 10
382.9678105473323
 20
561.0804256258259
 30
0.0
 10
382.9715897900663
 20
561.0431080818512
 30
0.0
  0
LINE
  5
1D7
330
1F
100
AcDbEntity
  8
0
  6
Continuous
 62
     7
370
    15
100
AcDbLine
 10
386.602540837
 20
612.5088466466
 30
0.0
 11
386.3025506599
 21
612.5088466466
 31
0.0
  0
LINE
  5
1D8
330
1F
100
AcDbEntity
  8
0
  6
Continuous
 62
     7
370
    15
100
AcDbLine
 10
386.3025506599
 20
611.50884462
 30
0.0
 11
386.2025489671
 21
611.50884462
 31
0.0
  0
LINE
  5
1D9
330
1F
100
AcDbEntity
  8
0
  6
Continuous
 62
     7
370
    15
100
AcDbLine
 10
386.2025489671
 20
605.5088473618
 30
0.0
 11
386.3025506599
 21
605.5088473618
 31
0.0
  0
LINE
  5
1DA
330
1F
100
AcDbEntity
  8
0
  6
Continuous
 62
     7
370
    15
100
AcDbLine
 10
386.3025506599
 20
588.508846438
 30
0.0
 11
386.2025489671
 21
588.508846438
 31
0.0
  0
LINE
  5
1DB
330
1F
100
AcDbEntity
  8
0
  6
Continuous
 62
     7
370
    15
100
AcDbLine
 10
386.2025489671
 20
582.5088491798
 30
0.0
 11
386.3025506599
 21
582.5088491798
 31
0.0
  0
LINE
  5
1DC
330
1F
100
AcDbEntity
  8
0
  6
Continuous
 62
     7
370
    15
100
AcDbLine
 10
386.602540837
 20
556.5088486433
 30
0.0
 11
386.602540837
 21
551.5088459611
 31
0.0
  0
LINE
  5
1DD
330
1F
100
AcDbEntity
  8
0
  6
Continuous
 62
     7
370
    15
100
AcDbLine
 10
401.6025414331
 20
556.5088486433
 30
0.0
 11
401.6025414331
 21
551.5088459611
 31
0.0
  0
LINE
  5
1DE
330
1F
100
AcDbEntity
  8
0
  6
Continuous
 62
     7
370
    15
100
AcDbLine
 10
386.602540837
 20
551.5088459611
 30
0.0
 11
401.6025414331
 21
551.5088459611
 31
0.0
  0
LINE
  5
1DF
330
1F
100
AcDbEntity
  8
0
  6
Continuous
 62
     7
370
    15
100
AcDbLine
 10
386.602540837
 20
556.5088486433
 30
0.0
 11
401.6025414331
 21
556.5088486433
 31
0.0
  0
ARC
  5
1E0
330
1F
100
AcDbEntity
  8
0
  6
Continuous
 62
     7
370
    15
100
AcDbCircle
 10
401.6025467975
 20
551.508846426
 30
0.0
 40
15.0
100
AcDbArc
 50
180.0
 51
270.0
  0
LINE
  5
1E1
330
1F
100
AcDbEntity
  8
0
  6
Continuous
 62
     7
370
    15
100
AcDbLine
 10
401.6025414331
 20
536.5088453651
 30
0.0
 11
401.6025414331
 21
551.5088459611
 31
0.0
  0
LINE
  5
1E2
330
1F
100
AcDbEntity
  8
0
  6
Continuous
 62
     7
370
    15
100
AcDbLine
 10
671.6025521619
 20
556.5088486433
 30
0.0
 11
671.6025521619
 21
551.5088459611
 31
0.0
  0
LINE
  5
1E3
330
1F
100
AcDbEntity
  8
0
  6
Continuous
 62
     7
370
    15
100
AcDbLine
 10
401.6025414331
 20
551.5088459611
 30
0.0
 11
671.6025521619
 21
551.5088459611
 31
0.0
  0
LINE
  5
1E4
330
1F
100
AcDbEntity
  8
0
  6
Continuous
 62
     7
370
    15
100
AcDbLine
 10
401.6025414331
 20
556.5088486433
 30
0.0
 11
671.6025521619
 21
556.5088486433
 31
0.0
  0
LINE
  5
1E5
330
1F
100
AcDbEntity
  8
0
  6
Continuous
 62
     7
370
    15
100
AcDbLine
 10
671.6025521619
 20
551.5088459611
 30
0.0
 11
671.6025521619
 21
536.5088453651
 31
0.0
  0
LINE
  5
1E6
330
1F
100
AcDbEntity
  8
0
  6
Continuous
 62
     7
370
    15
100
AcDbLine
 10
401.6025414331
 20
536.5088453651
 30
0.0
 11
671.6025521619
 21
536.5088453651
 31
0.0
  0
LINE
  5
1E7
330
1F
100
AcDbEntity
  8
0
  6
Continuous
 62
     7
370
    15
100
AcDbLine
 10
686.6025527579
 20
556.5088486433
 30
0.0
 11
686.6025527579
 21
551.5088459611
 31
0.0
  0
LINE
  5
1E8
330
1F
100
AcDbEntity
  8
0
  6
Continuous
 62
     7
370
    15
100
AcDbLine
 10
686.6025527579
 20
551.5088459611
 30
0.0
 11
671.6025521619
 21
551.5088459611
 31
0.0
  0
LINE
  5
1E9
330
1F
100
AcDbEntity
  8
0
  6
Continuous
 62
     7
370
    15
100
AcDbLine
 10
686.6025527579
 20
556.5088486433
 30
0.0
 11
671.6025521619
 21
556.5088486433
 31
0.0
  0
ARC
  5
1EA
330
1F
100
AcDbEntity
  8
0
  6
Continuous
 62
     7
370
    15
100
AcDbCircle
 10
671.6025467975
 20
551.508846426
 30
0.0
 40
15.0
100
AcDbArc
 50
270.0
 51
0.0
  0
LINE
  5
1EB
330
1F
100
AcDbEntity
  8
0
  6
Continuous
 62
     7
370
    15
100
AcDbLine
 10
385.4025503261
 20
554.5266142249
 30
0.0
 11
386.602540837
 21
554.5266142249
 31
0.0
  0
LINE
  5
1EC
330
1F
100
AcDbEntity
  8
0
  6
Continuous
 62
     7
370
    15
100
AcDbLine
 10
385.4025503261
 20
552.4226373196
 30
0.0
 11
386.602540837
 21
552.4226373196
 31
0.0
  0
LINE
  5
1ED
330
1F
100
AcDbEntity
  8
0
  6
Continuous
 62
     7
370
    15
100
AcDbLine
 10
385.4025503261
 20
552.4226373196
 30
0.0
 11
385.4025503261
 21
554.5266142249
 31
0.0
  0
LINE
  5
1EE
330
1F
100
AcDbEntity
  8
0
  6
Continuous
 62
     7
370
    15
100
AcDbLine
 10
385.4025503261
 20
559.5088472724
 30
0.0
 11
386.602540837
 21
559.5088472724
 31
0.0
  0
LINE
  5
1EF
330
1F
100
AcDbEntity
  8
0
  6
Continuous
 62
     7
370
    15
100
AcDbLine
 10
386.602540837
 20
556.5088486433
 30
0.0
 11
386.602540837
 21
559.5088472724
 31
0.0
  0
LINE
  5
1F0
330
1F
100
AcDbEntity
  8
0
  6
Continuous
 62
     7
370
    15
100
AcDbLine
 10
385.4025503261
 20
559.5088472724
 30
0.0
 11
385.4025503261
 21
554.5266142249
 31
0.0
  0
LINE
  5
1F1
330
1F
100
AcDbEntity
  8
0
  6
Continuous
 62
     7
370
    15
100
AcDbLine
 10
386.602540837
 20
551.5088459611
 30
0.0
 11
386.602540837
 21
548.0088463188
 31
0.0
  0
LINE
  5
1F2
330
1F
100
AcDbEntity
  8
0
  6
Continuous
 62
     7
370
    15
100
AcDbLine
 10
385.4025503261
 20
548.0088463188
 30
0.0
 11
385.4025503261
 21
552.4226373196
 31
0.0
  0
LINE
  5
1F3
330
1F
100
AcDbEntity
  8
0
  6
Continuous
 62
     7
370
    15
100
AcDbLine
 10
385.3025486333
 20
550.5088439346
 30
0.0
 11
385.3025486333
 21
556.5088486433
 31
0.0
  0
ARC
  5
1F4
330
1F
100
AcDbEntity
  8
0
  6
Continuous
 62
     7
370
    15
100
AcDbCircle
 10
383.8025467975
 20
561.208846426
 30
0.0
 40
2.800000000000011
100
AcDbArc
 50
0.0
 51
45.4024529621
  0
LINE
  5
1F5
330
1F
100
AcDbEntity
  8
0
  6
Continuous
 62
     7
370
    15
100
AcDbLine
 10
382.6948901279
 20
563.7804439426
 30
0.0
 11
382.0980092151
 21
563.4302368522
 31
0.0
  0
LINE
  5
1F6
330
1F
100
AcDbEntity
  8
0
  6
Continuous
 62
     7
370
    15
100
AcDbLine
 10
379.2850872142
 20
559.759231484
 30
0.0
 11
382.8285237414
 21
562.4782091141
 31
0.0
  0
LINE
  5
1F7
330
1F
100
AcDbEntity
  8
0
  6
Continuous
 62
     7
370
    15
100
AcDbLine
 10
378.5545726878
 20
560.7112592221
 30
0.0
 11
379.2850872142
 21
559.759231484
 31
0.0
  0
LINE
  5
1F8
330
1F
100
AcDbEntity
  8
0
  6
Continuous
 62
     7
370
    15
100
AcDbLine
 10
382.0980092151
 20
563.4302368522
 30
0.0
 11
378.5545726878
 21
560.7112592221
 31
0.0
  0
LINE
  5
1F9
330
1F
100
AcDbEntity
  8
0
  6
Continuous
 62
     7
370
    15
100
AcDbLine
 10
386.602540837
 20
559.5088472724
 30
0.0
 11
386.602540837
 21
560.508849299
 31
0.0
  0
LINE
  5
1FA
330
1F
100
AcDbEntity
  8
0
  6
Continuous
 62
     7
370
    15
100
AcDbLine
 10
385.4025503261
 20
560.1497834683
 30
0.0
 11
385.4025503261
 21
559.5088472724
 31
0.0
  0
LINE
  5
1FB
330
1F
100
AcDbEntity
  8
0
  6
Continuous
 62
     7
370
    15
100
AcDbLine
 10
378.3330669267
 20
559.0287169576
 30
0.0
 11
377.6025524003
 21
559.9807446957
 31
0.0
  0
LWPOLYLINE
  5
1FC
330
1F
100
AcDbEntity
  8
0
  6
Continuous
 62
     7
370
    15
100
AcDbPolyline
 90
        9
 70
   128
 43
0.0
 10
377.6025524003
 20
559.9807446957
 10
377.6208361251
 20
559.9947815895
 10
377.6750167472
 20
560.0363483787
 10
377.7629932029
 20
560.1038580895
 10
377.8813829286
 20
560.1947030187
 10
378.0256559712
 20
560.3054037452
 10
378.1902541978
 20
560.4316985369
 10
378.3688446147
 20
560.5687370658
 10
378.5545726878
 20
560.7112592221
  0
LWPOLYLINE
  5
1FD
330
1F
100
AcDbEntity
  8
0
  6
Continuous
 62
     7
370
    15
100
AcDbPolyline
 90
        9
 70
   128
 43
0.0
 10
379.2850872142
 20
559.759231484
 10
379.0993591411
 20
559.6167167783
 10
378.920753823
 20
559.4796782494
 10
378.7561704976
 20
559.3533834577
 10
378.6118974549
 20
559.2426827312
 10
378.4935077293
 20
559.1518303514
 10
378.4055312736
 20
559.0843280912
 10
378.3513506515
 20
559.0427538514
 10
378.3330669267
 20
559.0287169576
  0
ARC
  5
1FE
330
1F
100
AcDbEntity
  8
0
  6
Continuous
 62
     7
370
    15
100
AcDbCircle
 10
381.7025467975
 20
576.528846426
 30
0.0
 40
2.20000000000012
100
AcDbArc
 50
103.5934783352
 51
268.1042765976
  0
LINE
  5
1FF
330
1F
100
AcDbEntity
  8
0
  6
Continuous
 62
     7
370
    15
100
AcDbLine
 10
378.1557133061
 20
577.9066180945
 30
0.0
 11
378.4893652064
 21
579.7988494993
 31
0.0
  0
LWPOLYLINE
  5
200
330
1F
100
AcDbEntity
  8
0
  6
Continuous
 62
     7
370
    15
100
AcDbPolyline
 90
        9
 70
   128
 43
0.0
 10
378.4893652064
 20
579.7988494993
 10
378.3451368672
 20
579.8242783308
 10
378.2080908877
 20
579.8484405637
 10
378.0829807384
 20
579.8705017329
 10
377.974142657
 20
579.8896944285
 10
377.8853168351
 20
579.9053555489
 10
377.8195729119
 20
579.9169486523
 10
377.7792056663
 20
579.9240714074
 10
377.7655860049
 20
579.9264704943
  0
LINE
  5
201
330
1F
100
AcDbEntity
  8
0
  6
Continuous
 62
     7
370
    15
100
AcDbLine
 10
377.7655860049
 20
579.9264704943
 30
0.0
 11
382.1406265361
 21
604.7385802627
 31
0.0
  0
LWPOLYLINE
  5
202
330
1F
100
AcDbEntity
  8
0
  6
Continuous
 62
     7
370
    15
100
AcDbPolyline
 90
        9
 70
   128
 43
0.0
 10
382.1406265361
 20
604.7385802627
 10
382.1557661159
 20
604.7359092296
 10
382.2006037099
 20
604.7280041635
 10
382.2734107835
 20
604.7151668132
 10
382.3713859183
 20
604.6978926421
 10
382.4907740218
 20
604.6768410266
 10
382.6269855363
 20
604.65282408
 10
382.774775253
 20
604.6267619491
 10
382.9284807307
 20
604.5996604622
  0
LINE
  5
203
330
1F
100
AcDbEntity
  8
0
  6
Continuous
 62
     7
370
    15
100
AcDbLine
 10
382.9284807307
 20
604.5996604622
 30
0.0
 11
378.1031569106
 21
577.2338604689
 31
0.0
  0
LINE
  5
204
330
1F
100
AcDbEntity
  8
0
  6
Continuous
 62
     7
370
    15
100
AcDbLine
 10
378.1031569106
 20
577.2338604689
 30
0.0
 11
378.1557133061
 21
577.9066180945
 31
0.0
  0
LWPOLYLINE
  5
205
330
1F
100
AcDbEntity
  8
0
  6
Continuous
 62
     7
370
    15
100
AcDbPolyline
 90
        5
 70
   128
 43
0.0
 10
380.9879323108
 20
611.6269065202
 10
380.7344635589
 20
612.3233122886
 10
380.5508961541
 20
612.8276234627
 10
380.4397632939
 20
613.1329817832
 10
380.4025401933
 20
613.235229826
  0
LWPOLYLINE
  5
206
330
1F
100
AcDbEntity
  8
0
  6
Continuous
 62
     7
370
    15
100
AcDbPolyline
 90
        5
 70
   128
 43
0.0
 10
381.747548805
 20
611.8788926065
 10
381.4907123906
 20
612.5845631719
 10
381.3046862943
 20
613.0956804514
 10
381.1920186145
 20
613.4051961959
 10
381.1543037755
 20
613.5088449478
  0
LINE
  5
207
330
1F
100
AcDbEntity
  8
0
  6
Continuous
 62
     7
370
    15
100
AcDbLine
 10
381.9696506126
 20
611.5244461358
 30
0.0
 11
381.747548805
 21
611.8788926065
 31
0.0
  0
LINE
  5
208
330
1F
100
AcDbEntity
  8
0
  6
Continuous
 62
     7
370
    15
100
AcDbLine
 10
381.8874558074
 20
611.4945283294
 30
0.0
 11
381.9696506126
 21
611.5244461358
 31
0.0
  0
SPLINE
  5
209
330
1F
100
AcDbEntity
  8
0
  6
Continuous
 62
     7
370
    15
100
AcDbSpline
210
0.0
220
0.0
230
1.0
 70
     8
 71
     3
 72
    12
 73
     8
 74
     0
 42
0.00000001
 43
0.00000001
 40
0.0
 40
0.0
 40
0.0
 40
0.0
 40
0.2510216974581
 40
0.5023984045762419
 40
0.7402768941595013
 40
0.9473179129745757
 40
1.0
 40
1.0
 40
1.0
 40
1.0
 10
380.9879323107801
 20
611.6269065201618
 30
0.0
 10
381.0156412440336
 20
611.5825898242695
 30
0.0
 10
381.071098298145
 20
611.4938937572047
 30
0.0
 10
381.278095494928
 20
611.41888562945
 30
0.0
 10
381.5394867275883
 20
611.4074058691
 30
0.0
 10
381.7560748610711
 20
611.4490378047694
 30
0.0
 10
381.8653005340435
 20
611.4868570875942
 30
0.0
 10
381.8874558074079
 20
611.494528329406
 30
0.0
  0
LINE
  5
20A
330
1F
100
AcDbEntity
  8
0
  6
Continuous
 62
     7
370
    15
100
AcDbLine
 10
381.8874558074
 20
611.4945283294
 30
0.0
 11
382.4637880189
 21
609.9110452593
 31
0.0
  0
LWPOLYLINE
  5
20B
330
1F
100
AcDbEntity
  8
0
  6
Continuous
 62
     7
370
    15
100
AcDbPolyline
 90
        9
 70
   128
 43
0.0
 10
381.7120393378
 20
609.6374264121
 10
381.726478563
 20
609.642686522
 10
381.7692597968
 20
609.6582545102
 10
381.8387290103
 20
609.6835417807
 10
381.9322188956
 20
609.7175685823
 10
382.046138273
 20
609.7590310634
 10
382.1761062009
 20
609.8063347996
 10
382.3171307904
 20
609.8576655746
 10
382.4637880189
 20
609.9110452593
  0
LINE
  5
20C
330
1F
100
AcDbEntity
  8
0
  6
Continuous
 62
     7
370
    15
100
AcDbLine
 10
381.7120393378
 20
609.6374264121
 30
0.0
 11
380.9879323108
 21
611.6269065202
 31
0.0
  0
ARC
  5
20D
330
1F
100
AcDbEntity
  8
0
  6
Continuous
 62
     7
370
    15
100
AcDbCircle
 10
382.2925523036
 20
582.6978373445
 30
0.0
 40
1.600000000000075
100
AcDbArc
 50
347.034367059
 51
204.5705045339
  0
ARC
  5
20E
330
1F
100
AcDbEntity
  8
0
  6
Continuous
 62
     7
370
    15
100
AcDbCircle
 10
382.8052612689
 20
610.7209112804
 30
0.0
 40
0.5
100
AcDbArc
 50
36.8410865503
 51
90.0
  0
ARC
  5
20F
330
1F
100
AcDbEntity
  8
0
  6
Continuous
 62
     7
370
    15
100
AcDbCircle
 10
375.6025467975
 20
605.324532472
 30
0.0
 40
9.5
100
AcDbArc
 50
0.0
 51
36.8410865502
  0
LINE
  5
210
330
1F
100
AcDbEntity
  8
0
  6
Continuous
 62
     7
370
    15
100
AcDbLine
 10
385.1025452478
 20
605.3245311737
 30
0.0
 11
385.1025452478
 21
577.2988444329
 31
0.0
  0
ARC
  5
211
330
1F
100
AcDbEntity
  8
0
  6
Continuous
 62
     7
370
    15
100
AcDbCircle
 10
372.784959757
 20
606.3882368943
 30
0.0
 40
10.30000000000016
100
AcDbArc
 50
350.0
 51
20.0
  0
ARC
  5
212
330
1F
100
AcDbEntity
  8
0
  6
Continuous
 62
     7
370
    15
100
AcDbCircle
 10
382.6872487233
 20
612.2209112804
 30
0.0
 40
0.9999999999998863
100
AcDbArc
 50
224.1440002858
 51
270.0
  0
LINE
  5
213
330
1F
100
AcDbEntity
  8
0
  6
Continuous
 62
     7
370
    15
100
AcDbLine
 10
382.6872458322
 20
611.2209094823
 30
0.0
 11
382.8052630288
 21
611.2209094823
 31
0.0
  0
LWPOLYLINE
  5
214
330
1F
100
AcDbEntity
  8
0
  6
Continuous
 62
     7
370
    15
100
AcDbPolyline
 90
        3
 70
   128
 43
0.0
 10
385.1025452478
 20
577.2988444329
 10
384.893928991
 20
576.1085620284
 10
384.5377614362
 20
575.3924047709
  0
ARC
  5
215
330
1F
100
AcDbEntity
  8
0
  6
Continuous
 62
     7
370
    15
100
AcDbCircle
 10
381.6025467975
 20
577.298846426
 30
0.0
 40
3.500000000000123
100
AcDbArc
 50
181.0639402281
 51
271.3221928089
  0
ARC
  5
216
330
1F
100
AcDbEntity
  8
0
  6
Continuous
 62
     7
370
    15
100
AcDbCircle
 10
372.784959757
 20
606.3882368943
 30
0.0
 40
9.500000000000444
100
AcDbArc
 50
350.0
 51
20.0
  0
ARC
  5
217
330
1F
100
AcDbEntity
  8
0
  6
Continuous
 62
     7
370
    15
100
AcDbCircle
 10
382.1961645908
 20
577.9963419528
 30
0.0
 40
4.698428302688012
100
AcDbArc
 50
170.0
 51
264.3261771658
  0
LINE
  5
218
330
1F
100
AcDbEntity
  8
0
  6
Continuous
 62
     7
370
    15
100
AcDbLine
 10
377.7655860049
 20
579.9264704943
 30
0.0
 11
377.5691141946
 21
578.8122138143
 31
0.0
  0
SPLINE
  5
219
330
1F
100
AcDbEntity
  8
0
  6
Continuous
 62
     7
370
    15
100
AcDbSpline
210
0.0
220
0.0
230
1.0
 70
     8
 71
     3
 72
    12
 73
     8
 74
     0
 42
0.00000001
 43
0.00000001
 40
0.0
 40
0.0
 40
0.0
 40
0.0
 40
0.2340518500848962
 40
0.4681084143424835
 40
0.7021652771456403
 40
0.9362190989366869
 40
0.9999999999999999
 40
0.9999999999999999
 40
0.9999999999999999
 40
0.9999999999999999
 10
382.8995277745328
 20
578.1859627127983
 30
0.0
 10
382.7031349227344
 20
578.1665801021798
 30
0.0
 10
382.3103452634764
 20
578.1278144905463
 30
0.0
 10
381.7728462675183
 20
578.122572345211
 30
0.0
 10
381.3993445574972
 20
578.1610550216378
 30
0.0
 10
381.2201514568278
 20
578.2157051680838
 30
0.0
 10
381.2488705658569
 20
578.2596608827984
 30
0.0
 10
381.2550207240186
 20
578.269073939357
 30
0.0
  0
SPLINE
  5
21A
330
1F
100
AcDbEntity
  8
0
  6
Continuous
 62
     7
370
    15
100
AcDbSpline
210
0.0
220
0.0
230
1.0
 70
     8
 71
     3
 72
    11
 73
     7
 74
     0
 42
0.00000001
 43
0.00000001
 40
0.0
 40
0.0
 40
0.0
 40
0.0
 40
0.198686486802408
 40
0.4657890565669508
 40
0.7328959069263856
 40
1.0
 40
1.0
 40
1.0
 40
1.0
 10
384.1954370600782
 20
578.5648470878937
 30
0.0
 10
384.1942533073062
 20
578.5403573387331
 30
0.0
 10
384.1914781860799
 20
578.4829449935826
 30
0.0
 10
383.9219610351928
 20
578.3758498212371
 30
0.0
 10
383.4748926452451
 20
578.2650469214501
 30
0.0
 10
383.0913154048361
 20
578.212324024974
 30
0.0
 10
382.8995277745328
 20
578.1859627127983
 30
0.0
  0
SPLINE
  5
21B
330
1F
100
AcDbEntity
  8
0
  6
Continuous
 62
     7
370
    15
100
AcDbSpline
210
0.0
220
0.0
230
1.0
 70
     8
 71
     3
 72
    12
 73
     8
 74
     0
 42
0.00000001
 43
0.00000001
 40
0.0
 40
0.0
 40
0.0
 40
0.0
 40
0.2339702271299507
 40
0.4679328904885977
 40
0.7018980303025738
 40
0.9358629961404901
 40
1.0
 40
1.0
 40
1.0
 40
1.0
 10
382.2925587756238
 20
584.1978361964561
 30
0.0
 10
382.0964734017616
 20
584.1753309984365
 30
0.0
 10
381.7043089930698
 20
584.1303213299435
 30
0.0
 10
381.2013726909775
 20
583.782829203292
 30
0.0
 10
380.8815603131039
 20
583.2893422011067
 30
0.0
 10
380.7536331223226
 20
582.8357575508768
 30
0.0
 10
380.8114222280124
 20
582.5927645802184
 30
0.0
 10
380.8238556248746
 20
582.5404843449928
 30
0.0
  0
SPLINE
  5
21C
330
1F
100
AcDbEntity
  8
0
  6
Continuous
 62
     7
370
    15
100
AcDbSpline
210
0.0
220
0.0
230
1.0
 70
     8
 71
     3
 72
    11
 73
     7
 74
     0
 42
0.00000001
 43
0.00000001
 40
0.0
 40
0.0
 40
0.0
 40
0.0
 40
0.1976896372521521
 40
0.4651276561127174
 40
0.7325628442169249
 40
1.0
 40
1.0
 40
1.0
 40
1.0
 10
383.7627669436536
 20
582.8475451231338
 30
0.0
 10
383.7444867497047
 20
582.992296110862
 30
0.0
 10
383.7014767878123
 20
583.3328687811235
 30
0.0
 10
383.3760175568308
 20
583.7826417306995
 30
0.0
 10
382.8827259876501
 20
584.1303651756975
 30
0.0
 10
382.4892816620979
 20
584.1753458010454
 30
0.0
 10
382.2925587756238
 20
584.1978361964561
 30
0.0
  0
SPLINE
  5
21D
330
1F
100
AcDbEntity
  8
0
  6
Continuous
 62
     7
370
    15
100
AcDbSpline
210
0.0
220
0.0
230
1.0
 70
     8
 71
     3
 72
    12
 73
     8
 74
     0
 42
0.00000001
 43
0.00000001
 40
0.0
 40
0.0
 40
0.0
 40
0.0
 40
0.2350125244436734
 40
0.470030069204972
 40
0.70504759456043
 40
0.9400627036485777
 40
1.0
 40
1.0
 40
1.0
 40
1.0
 10
384.4686051470838
 20
562.6449903607704
 30
0.0
 10
384.2722196000929
 20
562.625612488345
 30
0.0
 10
383.8794443109394
 20
562.5868563295459
 30
0.0
 10
383.3418355774911
 20
562.5815878443781
 30
0.0
 10
382.9687533904277
 20
562.6201170534342
 30
0.0
 10
382.7897569614422
 20
562.6742272309073
 30
0.0
 10
382.8176294614364
 20
562.7175289950142
 30
0.0
 10
382.8232934338651
 20
562.726328349147
 30
0.0
  0
SPLINE
  5
21E
330
1F
100
AcDbEntity
  8
0
  6
Continuous
 62
     7
370
    15
100
AcDbSpline
210
0.0
220
0.0
230
1.0
 70
     8
 71
     3
 72
    11
 73
     7
 74
     0
 42
0.00000001
 43
0.00000001
 40
0.0
 40
0.0
 40
0.0
 40
0.0
 40
0.1989239528429226
 40
0.4659512217777148
 40
0.7329742825759883
 40
0.9999999999999999
 40
0.9999999999999999
 40
0.9999999999999999
 40
0.9999999999999999
 10
385.7645591361127
 20
563.0239864945747
 30
0.0
 10
385.7633852648257
 20
562.9994608752565
 30
0.0
 10
385.7606356373796
 20
562.9420130811478
 30
0.0
 10
385.4910302359849
 20
562.8348805049551
 30
0.0
 10
385.0439671996749
 20
562.7240729812441
 30
0.0
 10
384.6603931339773
 20
562.671351321683
 30
0.0
 10
384.4686051470838
 20
562.6449903607704
 30
0.0
  0
LINE
  5
21F
330
1F
100
AcDbEntity
  8
0
  6
Continuous
 62
     7
370
    15
100
AcDbLine
 10
382.9916765554
 20
561.0425641895
 30
0.0
 11
382.9906930787
 21
561.2460991502
 31
0.0
  0
ARC
  5
220
330
1F
100
AcDbEntity
  8
0
  6
Continuous
 62
     7
370
    15
100
AcDbCircle
 10
385.6698329908
 20
572.9466222923
 30
0.0
 40
0.4000075631347871
100
AcDbArc
 50
0.1476654792
 51
179.5012206112
  0
ELLIPSE
  5
221
330
1F
100
AcDbEntity
  8
0
  6
Continuous
 62
     7
370
    15
100
AcDbEllipse
 10
385.6698461978
 20
572.6817380323
 30
0.0
 11
0.3991830274373456
 21
-0.02624604221148275
 31
0.0
210
0.0
220
0.0
230
1.0
 40
0.9763157485
 41
0.0
 42
6.283185307179586
  0
SPLINE
  5
222
330
1F
100
AcDbEntity
  8
0
  6
Continuous
 62
     7
370
    15
100
AcDbSpline
210
0.0
220
0.0
230
1.0
 70
     8
 71
     3
 72
    13
 73
     9
 74
     0
 42
0.00000001
 43
0.00000001
 40
0.0
 40
0.0
 40
0.0
 40
0.0
 40
0.0081702305184465
 40
0.2391540597909445
 40
0.4710939174990594
 40
0.693120466081165
 40
0.9042225443386908
 40
1.0
 40
1.0
 40
1.0
 40
1.0
 10
385.6698473555646
 20
573.4105726838447
 30
0.0
 10
385.6681884544316
 20
573.410177888472
 30
0.0
 10
385.6196301010456
 20
573.3986216764448
 30
0.0
 10
385.5234981089721
 20
573.3754254469972
 30
0.0
 10
385.4006620352095
 20
573.3317835281225
 30
0.0
 10
385.3150128587018
 20
573.2943290408643
 30
0.0
 10
385.2709940616944
 20
573.273182559505
 30
0.0
 10
385.2742260862472
 20
573.2682037199944
 30
0.0
 10
385.2752348048292
 20
573.266649818454
 30
0.0
  0
SPLINE
  5
223
330
1F
100
AcDbEntity
  8
0
  6
Continuous
 62
     7
370
    15
100
AcDbSpline
210
0.0
220
0.0
230
1.0
 70
     8
 71
     3
 72
    13
 73
     9
 74
     0
 42
0.00000001
 43
0.00000001
 40
0.0
 40
0.0
 40
0.0
 40
0.0
 40
0.1252289285960488
 40
0.2499779134280402
 40
0.4999780450168358
 40
0.749997895397136
 40
0.8747543546657531
 40
0.9999999999999999
 40
0.9999999999999999
 40
0.9999999999999999
 40
0.9999999999999999
 10
386.0698541266523
 20
573.4048804402687
 30
0.0
 10
386.0681398044654
 20
573.4049071943961
 30
0.0
 10
386.0647177302845
 20
573.4049606001147
 30
0.0
 10
386.030337856326
 20
573.4054371914407
 30
0.0
 10
385.9550740415389
 20
573.4065145889715
 30
0.0
 10
385.8464117006112
 20
573.408063948889
 30
0.0
 10
385.747698461602
 20
573.4094608182331
 30
0.0
 10
385.6958315540502
 20
573.4102015788186
 30
0.0
 10
385.6698473555646
 20
573.4105726838447
 30
0.0
  0
SPLINE
  5
224
330
1F
100
AcDbEntity
  8
0
  6
Continuous
 62
     7
370
    15
100
AcDbSpline
210
0.0
220
0.0
230
1.0
 70
     8
 71
     3
 72
    10
 73
     6
 74
     0
 42
0.00000001
 43
0.00000001
 40
0.0
 40
0.0
 40
0.0
 40
0.0
 40
0.0190107309040389
 40
0.5253203859619627
 40
1.0
 40
1.0
 40
1.0
 40
1.0
 10
385.6698473555646
 20
573.4105726838447
 30
0.0
 10
385.6713717055454
 20
573.4113103806453
 30
0.0
 10
385.7134938167
 20
573.4316950344434
 30
0.0
 10
385.7960126507243
 20
573.4701097697341
 30
0.0
 10
385.8661682253974
 20
573.4962143815588
 30
0.0
 10
385.9001149994932
 20
573.5088458419182
 30
0.0
  0
LINE
  5
225
330
1F
100
AcDbEntity
  8
0
  6
Continuous
 62
     7
370
    15
100
AcDbLine
 10
380.7933231456
 20
582.6498067141
 30
0.0
 11
380.8057805163
 21
582.4990367651
 31
0.0
  0
LINE
  5
226
330
1F
100
AcDbEntity
  8
0
  6
Continuous
 62
     7
370
    15
100
AcDbLine
 10
383.7855508191
 20
582.8425457836
 30
0.0
 11
383.7499668462
 21
583.052711761
 31
0.0
  0
LINE
  5
227
330
1F
100
AcDbEntity
  8
0
  6
Continuous
 62
     7
370
    15
100
AcDbLine
 10
671.6025521619
 20
641.5088467434
 30
0.0
 11
686.6025527579
 21
641.5088467434
 31
0.0
  0
LINE
  5
228
330
1F
100
AcDbEntity
  8
0
  6
Continuous
 62
     7
370
    15
100
AcDbLine
 10
671.6025521619
 20
641.5088467434
 30
0.0
 11
671.6025521619
 21
656.5088464082
 31
0.0
  0
ARC
  5
229
330
1F
100
AcDbEntity
  8
0
  6
Continuous
 62
     7
370
    15
100
AcDbCircle
 10
671.6025467975
 20
641.508846426
 30
0.0
 40
15.0
100
AcDbArc
 50
0.0
 51
90.0
  0
LINE
  5
22A
330
1F
100
AcDbEntity
  8
0
  6
Continuous
 62
     7
370
    15
100
AcDbLine
 10
401.6025414331
 20
641.5088467434
 30
0.0
 11
401.6025414331
 21
656.5088464082
 31
0.0
  0
LINE
  5
22B
330
1F
100
AcDbEntity
  8
0
  6
Continuous
 62
     7
370
    15
100
AcDbLine
 10
401.6025414331
 20
641.5088467434
 30
0.0
 11
386.602540837
 21
641.5088467434
 31
0.0
  0
ARC
  5
22C
330
1F
100
AcDbEntity
  8
0
  6
Continuous
 62
     7
370
    15
100
AcDbCircle
 10
401.6025467975
 20
641.508846426
 30
0.0
 40
15.0
100
AcDbArc
 50
90.0
 51
180.0
  0
LINE
  5
22D
330
1F
100
AcDbEntity
  8
0
  6
Continuous
 62
     7
370
    15
100
AcDbLine
 10
671.6025521619
 20
656.5088464082
 30
0.0
 11
401.6025414331
 21
656.5088464082
 31
0.0
  0
LINE
  5
22E
330
1F
100
AcDbEntity
  8
0
  6
Continuous
 62
     7
370
    15
100
AcDbLine
 10
671.6025521619
 20
641.5088467434
 30
0.0
 11
401.6025414331
 21
641.5088467434
 31
0.0
  0
LINE
  5
22F
330
1F
100
AcDbEntity
  8
0
  6
Continuous
 62
     7
370
    15
100
AcDbLine
 10
686.6025527579
 20
641.5088467434
 30
0.0
 11
686.6025527579
 21
560.508849299
 31
0.0
  0
LINE
  5
230
330
1F
100
AcDbEntity
  8
0
  6
Continuous
 62
     7
370
    15
100
AcDbLine
 10
686.6025527579
 20
560.508849299
 30
0.0
 11
671.6025521619
 21
560.508849299
 31
0.0
  0
LINE
  5
231
330
1F
100
AcDbEntity
  8
0
  6
Continuous
 62
     7
370
    15
100
AcDbLine
 10
671.6025521619
 20
641.5088467434
 30
0.0
 11
671.6025521619
 21
560.508849299
 31
0.0
  0
LINE
  5
232
330
1F
100
AcDbEntity
  8
0
  6
Continuous
 62
     7
370
    15
100
AcDbLine
 10
401.6025414331
 20
560.508849299
 30
0.0
 11
401.6025414331
 21
641.5088467434
 31
0.0
  0
LINE
  5
233
330
1F
100
AcDbEntity
  8
0
  6
Continuous
 62
     7
370
    15
100
AcDbLine
 10
401.6025414331
 20
560.508849299
 30
0.0
 11
386.602540837
 21
560.508849299
 31
0.0
  0
LINE
  5
234
330
1F
100
AcDbEntity
  8
0
  6
Continuous
 62
     7
370
    15
100
AcDbLine
 10
386.602540837
 20
560.508849299
 30
0.0
 11
386.602540837
 21
641.5088467434
 31
0.0
  0
LINE
  5
235
330
1F
100
AcDbEntity
  8
0
  6
Continuous
 62
     7
370
    15
100
AcDbLine
 10
406.6025515658
 20
580.5088451267
 30
0.0
 11
406.6025515658
 21
636.5088468552
 31
0.0
  0
LINE
  5
236
330
1F
100
AcDbEntity
  8
0
  6
Continuous
 62
     7
370
    15
100
AcDbLine
 10
406.6025515658
 20
580.5088451267
 30
0.0
 11
666.6025420291
 21
580.5088451267
 31
0.0
  0
LINE
  5
237
330
1F
100
AcDbEntity
  8
0
  6
Continuous
 62
     7
370
    15
100
AcDbLine
 10
666.6025420291
 20
636.5088468552
 30
0.0
 11
666.6025420291
 21
580.5088451267
 31
0.0
  0
LINE
  5
238
330
1F
100
AcDbEntity
  8
0
  6
Continuous
 62
     7
370
    15
100
AcDbLine
 10
666.6025420291
 20
636.5088468552
 30
0.0
 11
406.6025515658
 21
636.5088468552
 31
0.0
  0
LINE
  5
239
330
1F
100
AcDbEntity
  8
0
  6
Continuous
 62
     7
370
    15
100
AcDbLine
 10
401.6025414331
 20
560.508849299
 30
0.0
 11
671.6025521619
 21
560.508849299
 31
0.0
  0
LINE
  5
23A
330
1F
100
AcDbEntity
  8
0
  6
Continuous
 62
     7
370
    15
100
AcDbLine
 10
406.6025515658
 20
556.5088486433
 30
0.0
 11
406.6025515658
 21
560.508849299
 31
0.0
  0
LINE
  5
23B
330
1F
100
AcDbEntity
  8
0
  6
Continuous
 62
     7
370
    15
100
AcDbLine
 10
391.6025509698
 20
556.5088486433
 30
0.0
 11
391.6025509698
 21
560.508849299
 31
0.0
  0
LINE
  5
23C
330
1F
100
AcDbEntity
  8
0
  6
Continuous
 62
     7
370
    15
100
AcDbLine
 10
681.6025426251
 20
556.5088486433
 30
0.0
 11
681.6025426251
 21
560.508849299
 31
0.0
  0
LINE
  5
23D
330
1F
100
AcDbEntity
  8
0
  6
Continuous
 62
     7
370
    15
100
AcDbLine
 10
666.6025420291
 20
556.5088486433
 30
0.0
 11
666.6025420291
 21
560.508849299
 31
0.0
  0
LINE
  5
23E
330
1F
100
AcDbEntity
  8
0
  6
Continuous
 62
     7
370
    15
100
AcDbLine
 10
686.6025527579
 20
560.508849299
 30
0.0
 11
687.2698714597
 21
560.508849299
 31
0.0
  0
ARC
  5
23F
330
1F
100
AcDbEntity
  8
0
  6
Continuous
 62
     7
370
    15
100
AcDbCircle
 10
687.2698645455
 20
561.008846426
 30
0.0
 40
0.5000000000001061
100
AcDbArc
 50
270.0
 51
332.720387264
  0
ARC
  5
240
330
1F
100
AcDbEntity
  8
0
  6
Continuous
 62
     7
370
    15
100
AcDbCircle
 10
692.6025467975
 20
558.258846426
 30
0.0
 40
5.500000000000011
100
AcDbArc
 50
202.024312837
 51
152.720387264
  0
ARC
  5
241
330
1F
100
AcDbEntity
  8
0
  6
Continuous
 62
     7
370
    15
100
AcDbCircle
 10
687.0403979322
 20
556.008846426
 30
0.0
 40
0.5
100
AcDbArc
 50
22.024312837
 51
90.0
  0
LINE
  5
242
330
1F
100
AcDbEntity
  8
0
  6
Continuous
 62
     7
370
    15
100
AcDbLine
 10
687.0403935773
 20
556.5088486433
 30
0.0
 11
686.6025527579
 21
556.5088486433
 31
0.0
  0
LINE
  5
243
330
1F
100
AcDbEntity
  8
0
  6
Continuous
 62
     7
370
    15
100
AcDbLine
 10
386.3025506599
 20
579.7088464856
 30
0.0
 11
386.602540837
 21
579.7099044681
 31
0.0
  0
LINE
  5
244
330
1F
100
AcDbEntity
  8
0
  6
Continuous
 62
     7
370
    15
100
AcDbLine
 10
386.602540837
 20
581.7088430882
 30
0.0
 11
386.3025506599
 21
581.7088430882
 31
0.0
  0
LINE
  5
245
330
1F
100
AcDbEntity
  8
0
  6
Continuous
 62
     7
370
    15
100
AcDbLine
 10
386.3025506599
 20
579.7088464856
 30
0.0
 11
386.3025506599
 21
581.7088430882
 31
0.0
  0
LINE
  5
246
330
1F
100
AcDbEntity
  8
0
  6
Continuous
 62
     7
370
    15
100
AcDbLine
 10
386.3025506599
 20
573.5088458419
 30
0.0
 11
386.3025506599
 21
579.7088464856
 31
0.0
  0
LINE
  5
247
330
1F
100
AcDbEntity
  8
0
  6
Continuous
 62
     7
370
    15
100
AcDbLine
 10
386.602540837
 20
573.5088458419
 30
0.0
 11
386.3025506599
 21
573.5088458419
 31
0.0
  0
ARC
  5
248
330
1F
100
AcDbEntity
  8
0
  6
Continuous
 62
     7
370
    15
100
AcDbCircle
 10
381.4025467975
 20
576.608846426
 30
0.0
 40
3.099999999999961
100
AcDbArc
 50
192.3149190288
 51
270.0
  0
LINE
  5
249
330
1F
100
AcDbEntity
  8
0
  6
Continuous
 62
     7
370
    15
100
AcDbLine
 10
386.3025506599
 20
579.7088464856
 30
0.0
 11
385.1025452478
 21
579.7088464856
 31
0.0
  0
LINE
  5
24A
330
1F
100
AcDbEntity
  8
0
  6
Continuous
 62
     7
370
    15
100
AcDbLine
 10
381.4025422198
 20
573.5088458419
 30
0.0
 11
381.7126800878
 21
573.5088458419
 31
0.0
  0
LINE
  5
24B
330
1F
100
AcDbEntity
  8
0
  6
Continuous
 62
     7
370
    15
100
AcDbLine
 10
384.7279300553
 20
573.5088458419
 30
0.0
 11
386.3025506599
 21
573.5088458419
 31
0.0
  0
LINE
  5
24C
330
1F
100
AcDbEntity
  8
0
  6
Continuous
 62
     7
370
    15
100
AcDbLine
 10
386.3025506599
 20
581.7088430882
 30
0.0
 11
386.3025506599
 21
605.7588478685
 31
0.0
  0
LINE
  5
24D
330
1F
100
AcDbEntity
  8
0
  6
Continuous
 62
     7
370
    15
100
AcDbLine
 10
386.3025506599
 20
612.5088466466
 30
0.0
 11
386.3025506599
 21
605.7588478685
 31
0.0
  0
LINE
  5
24E
330
1F
100
AcDbEntity
  8
0
  6
Continuous
 62
     7
370
    15
100
AcDbLine
 10
386.2025489671
 20
605.5088473618
 30
0.0
 11
386.2025489671
 21
611.50884462
 31
0.0
  0
LINE
  5
24F
330
1F
100
AcDbEntity
  8
0
  6
Continuous
 62
     7
370
    15
100
AcDbLine
 10
386.2025489671
 20
582.5088491798
 30
0.0
 11
386.2025489671
 21
588.508846438
 31
0.0
  0
LINE
  5
250
330
1F
100
AcDbEntity
  8
0
  6
Continuous
 62
     7
370
    15
100
AcDbLine
 10
386.3025506599
 20
596.5088477493
 30
0.0
 11
385.1025452478
 21
596.8303850055
 31
0.0
  0
LINE
  5
251
330
1F
100
AcDbEntity
  8
0
  6
Continuous
 62
     7
370
    15
100
AcDbLine
 10
385.1025452478
 20
597.8656618059
 30
0.0
 11
386.3025506599
 21
597.5441208244
 31
0.0
  0
LINE
  5
252
330
1F
100
AcDbEntity
  8
0
  6
Continuous
 62
     8
370
    15
100
AcDbLine
 10
386.602540837
 20
605.7588478685
 30
0.0
 11
386.3025506599
 21
605.7588478685
 31
0.0
  0
ENDSEC
  0
SECTION
  2
OBJECTS
  0
DICTIONARY
  5
C
330
0
100
AcDbDictionary
281
     1
  3
ACAD_GROUP
350
D
  3
ACAD_LAYOUT
350
1A
  3
ACAD_MLINESTYLE
350
17
  3
ACAD_PLOTSETTINGS
350
19
  3
ACAD_PLOTSTYLENAME
350
E
  0
DICTIONARY
  5
D
102
{ACAD_REACTORS
330
C
102
}
330
C
100
AcDbDictionary
281
     1
  0
DICTIONARY
  5
1A
102
{ACAD_REACTORS
330
C
102
}
330
C
100
AcDbDictionary
281
     1
  3
Layout1
350
1E
  3
Layout2
350
26
  3
Model
350
22
  0
DICTIONARY
  5
17
102
{ACAD_REACTORS
330
C
102
}
330
C
100
AcDbDictionary
281
     1
  3
Standard
350
18
  0
DICTIONARY
  5
19
102
{ACAD_REACTORS
330
C
102
}
330
C
100
AcDbDictionary
281
     1
  0
ACDBDICTIONARYWDFLT
  5
E
102
{ACAD_REACTORS
330
C
102
}
330
C
100
AcDbDictionary
281
     1
  3
Normal
350
F
100
AcDbDictionaryWithDefault
340
F
  0
LAYOUT
  5
1E
102
{ACAD_REACTORS
330
1A
102
}
330
1A
100
AcDbPlotSettings
  1

  2
none_device
  4

  6

 40
0.0
 41
0.0
 42
0.0
 43
0.0
 44
0.0
 45
0.0
 46
0.0
 47
0.0
 48
0.0
 49
0.0
140
0.0
141
0.0
142
1.0
143
1.0
 70
   688
 72
     0
 73
     0
 74
     5
  7

 75
    16
147
1.0
148
0.0
149
0.0
100
AcDbLayout
  1
Layout1
 70
     1
 71
     1
 10
0.0
 20
0.0
 11
420.0
 21
297.0
 12
0.0
 22
0.0
 32
0.0
 14
1.0000000000E+20
 24
1.0000000000E+20
 34
1.0000000000E+20
 15
-1.0000000000E+20
 25
-1.0000000000E+20
 35
-1.0000000000E+20
146
0.0
 13
0.0
 23
0.0
 33
0.0
 16
1.0
 26
0.0
 36
0.0
 17
0.0
 27
1.0
 37
0.0
 76
     0
330
1B
  0
LAYOUT
  5
26
102
{ACAD_REACTORS
330
1A
102
}
330
1A
100
AcDbPlotSettings
  1

  2
none_device
  4

  6

 40
0.0
 41
0.0
 42
0.0
 43
0.0
 44
0.0
 45
0.0
 46
0.0
 47
0.0
 48
0.0
 49
0.0
140
0.0
141
0.0
142
1.0
143
1.0
 70
   688
 72
     0
 73
     0
 74
     5
  7

 75
    16
147
1.0
148
0.0
149
0.0
100
AcDbLayout
  1
Layout2
 70
     1
 71
     2
 10
0.0
 20
0.0
 11
0.0
 21
0.0
 12
0.0
 22
0.0
 32
0.0
 14
0.0
 24
0.0
 34
0.0
 15
0.0
 25
0.0
 35
0.0
146
0.0
 13
0.0
 23
0.0
 33
0.0
 16
1.0
 26
0.0
 36
0.0
 17
0.0
 27
1.0
 37
0.0
 76
     0
330
23
  0
LAYOUT
  5
22
102
{ACAD_REACTORS
330
1A
102
}
330
1A
100
AcDbPlotSettings
  1

  2
none_device
  4

  6

 40
0.0
 41
0.0
 42
0.0
 43
0.0
 44
0.0
 45
0.0
 46
0.0
 47
0.0
 48
0.0
 49
0.0
140
0.0
141
0.0
142
1.0
143
1.0
 70
  1712
 72
     0
 73
     0
 74
     0
  7

 75
     0
147
1.0
148
0.0
149
0.0
100
AcDbLayout
  1
Model
 70
     1
 71
     0
 10
0.0
 20
0.0
 11
840.0
 21
594.0
 12
0.0
 22
0.0
 32
0.0
 14
0.0
 24
0.0
 34
0.0
 15
840.0
 25
594.0
 35
0.0
146
0.0
 13
0.0
 23
0.0
 33
0.0
 16
1.0
 26
0.0
 36
0.0
 17
0.0
 27
1.0
 37
0.0
 76
     0
330
1F
331
29
  0
MLINESTYLE
  5
18
102
{ACAD_REACTORS
330
17
102
}
330
17
100
AcDbMlineStyle
  2
Standard
 70
     0
  3

 62
   256
 51
90.0
 52
90.0
 71
     2
 49
0.5
 62
   256
  6
BYLAYER
 49
-0.5
 62
   256
  6
BYLAYER
  0
ACDBPLACEHOLDER
  5
F
102
{ACAD_REACTORS
330
E
102
}
330
E
  0
ENDSEC
  0
EOF
