  0
SECTION
  2
HEADER
  9
$ACADVER
  1
AC1015
  9
$ACADMAINTVER
 70
     6
  9
$DWGCODEPAGE
  3
DOS932
  9
$INSBASE
 10
0.0
 20
0.0
 30
0.0
  9
$EXTMIN
 10
0.0
 20
0.0
 30
0.0
  9
$EXTMAX
 10
840.0
 20
594.0
 30
0.0
  9
$LIMMIN
 10
0.0
 20
0.0
  9
$LIMMAX
 10
840.0
 20
594.0
  9
$ORTHOMODE
 70
     0
  9
$REGENMODE
 70
     1
  9
$FILLMODE
 70
     1
  9
$QTEXTMODE
 70
     0
  9
$MIRRTEXT
 70
     1
  9
$LTSCALE
 40
2.0
  9
$ATTMODE
 70
     1
  9
$TEXTSIZE
 40
7.0
  9
$TRACEWID
 40
1.0
  9
$TEXTSTYLE
  7
Standard
  9
$CLAYER
  8
0
  9
$CELTYPE
  6
ByLayer
  9
$CECOLOR
 62
   256
  9
$CELTSCALE
 40
1.0
  9
$DISPSILH
 70
     0
  9
$DIMSCALE
 40
1.0
  9
$DIMASZ
 40
6.0
  9
$DIMEXO
 40
2.0
  9
$DIMDLI
 40
3.75
  9
$DIMRND
 40
0.0
  9
$DIMDLE
 40
0.0
  9
$DIMEXE
 40
2.0
  9
$DIMTP
 40
0.0
  9
$DIMTM
 40
0.0
  9
$DIMTXT
 40
7.0
  9
$DIMCEN
 40
2.5
  9
$DIMTSZ
 40
0.0
  9
$DIMTOL
 70
     0
  9
$DIMLIM
 70
     0
  9
$DIMTIH
 70
     1
  9
$DIMTOH
 70
     1
  9
$DIMSE1
 70
     0
  9
$DIMSE2
 70
     0
  9
$DIMTAD
 70
     1
  9
$DIMZIN
 70
     0
  9
$DIMBLK
  1

  9
$DIMASO
 70
     1
  9
$DIMSHO
 70
     1
  9
$DIMPOST
  1

  9
$DIMAPOST
  1

  9
$DIMALT
 70
     0
  9
$DIMALTD
 70
     3
  9
$DIMALTF
 40
0.0393700787
  9
$DIMLFAC
 40
1.0
  9
$DIMTOFL
 70
     1
  9
$DIMTVP
 40
0.0
  9
$DIMTIX
 70
     0
  9
$DIMSOXD
 70
     0
  9
$DIMSAH
 70
     0
  9
$DIMBLK1
  1

  9
$DIMBLK2
  1

  9
$DIMSTYLE
  2
ISO-25
  9
$DIMCLRD
 70
     0
  9
$DIMCLRE
 70
     0
  9
$DIMCLRT
 70
     0
  9
$DIMTFAC
 40
1.0
  9
$DIMGAP
 40
3.048
  9
$DIMJUST
 70
     0
  9
$DIMSD1
 70
     0
  9
$DIMSD2
 70
     0
  9
$DIMTOLJ
 70
     0
  9
$DIMTZIN
 70
     0
  9
$DIMALTZ
 70
     0
  9
$DIMALTTZ
 70
     0
  9
$DIMUPT
 70
     0
  9
$DIMDEC
 70
     1
  9
$DIMTDEC
 70
     1
  9
$DIMALTU
 70
     2
  9
$DIMALTTD
 70
     3
  9
$DIMTXSTY
  7
Standard
  9
$DIMAUNIT
 70
     0
  9
$DIMADEC
 70
     2
  9
$DIMALTRND
 40
0.0
  9
$DIMAZIN
 70
     0
  9
$DIMDSEP
 70
    44
  9
$DIMATFIT
 70
     3
  9
$DIMFRAC
 70
     0
  9
$DIMLDRBLK
  1

  9
$DIMLUNIT
 70
     2
  9
$DIMLWD
 70
    -2
  9
$DIMLWE
 70
    -2
  9
$DIMTMOVE
 70
     0
  9
$LUNITS
 70
     2
  9
$LUPREC
 70
     1
  9
$SKETCHINC
 40
1.0
  9
$FILLETRAD
 40
10.0
  9
$AUNITS
 70
     0
  9
$AUPREC
 70
     2
  9
$MENU
  1
.
  9
$ELEVATION
 40
0.0
  9
$PELEVATION
 40
0.0
  9
$THICKNESS
 40
0.0
  9
$LIMCHECK
 70
     0
  9
$CHAMFERA
 40
10.0
  9
$CHAMFERB
 40
10.0
  9
$CHAMFERC
 40
20.0
  9
$CHAMFERD
 40
0.0
  9
$SKPOLY
 70
     0
  9
$TDCREATE
 40
2460440.572661748
  9
$TDUCREATE
 40
2460440.197661748
  9
$TDUPDATE
 40
2460440.572661759
  9
$TDUUPDATE
 40
2460440.197661759
  9
$TDINDWG
 40
0.0000000116
  9
$TDUSRTIMER
 40
0.0000000116
  9
$USRTIMER
 70
     1
  9
$ANGBASE
 50
0.0
  9
$ANGDIR
 70
     0
  9
$PDMODE
 70
     0
  9
$PDSIZE
 40
-1.0
  9
$PLINEWID
 40
0.0
  9
$SPLFRAME
 70
     0
  9
$SPLINETYPE
 70
     6
  9
$SPLINESEGS
 70
     8
  9
$HANDSEED
  5
252
  9
$SURFTAB1
 70
     6
  9
$SURFTAB2
 70
     6
  9
$SURFTYPE
 70
     6
  9
$SURFU
 70
     6
  9
$SURFV
 70
     6
  9
$UCSBASE
  2

  9
$UCSNAME
  2

  9
$UCSORG
 10
0.0
 20
0.0
 30
0.0
  9
$UCSXDIR
 10
1.0
 20
0.0
 30
0.0
  9
$UCSYDIR
 10
0.0
 20
1.0
 30
0.0
  9
$UCSORTHOREF
  2

  9
$UCSORTHOVIEW
 70
     0
  9
$UCSORGTOP
 10
0.0
 20
0.0
 30
0.0
  9
$UCSORGBOTTOM
 10
0.0
 20
0.0
 30
0.0
  9
$UCSORGLEFT
 10
0.0
 20
0.0
 30
0.0
  9
$UCSORGRIGHT
 10
0.0
 20
0.0
 30
0.0
  9
$UCSORGFRONT
 10
0.0
 20
0.0
 30
0.0
  9
$UCSORGBACK
 10
0.0
 20
0.0
 30
0.0
  9
$PUCSBASE
  2

  9
$PUCSNAME
  2

  9
$PUCSORG
 10
0.0
 20
0.0
 30
0.0
  9
$PUCSXDIR
 10
1.0
 20
0.0
 30
0.0
  9
$PUCSYDIR
 10
0.0
 20
1.0
 30
0.0
  9
$PUCSORTHOREF
  2

  9
$PUCSORTHOVIEW
 70
     0
  9
$PUCSORGTOP
 10
0.0
 20
0.0
 30
0.0
  9
$PUCSORGBOTTOM
 10
0.0
 20
0.0
 30
0.0
  9
$PUCSORGLEFT
 10
0.0
 20
0.0
 30
0.0
  9
$PUCSORGRIGHT
 10
0.0
 20
0.0
 30
0.0
  9
$PUCSORGFRONT
 10
0.0
 20
0.0
 30
0.0
  9
$PUCSORGBACK
 10
0.0
 20
0.0
 30
0.0
  9
$USERI1
 70
     0
  9
$USERI2
 70
     0
  9
$USERI3
 70
     0
  9
$USERI4
 70
     0
  9
$USERI5
 70
     0
  9
$USERR1
 40
0.0
  9
$USERR2
 40
0.0
  9
$USERR3
 40
0.0
  9
$USERR4
 40
0.0
  9
$USERR5
 40
0.0
  9
$WORLDVIEW
 70
     1
  9
$SHADEDGE
 70
     3
  9
$SHADEDIF
 70
    70
  9
$TILEMODE
 70
     1
  9
$MAXACTVP
 70
    64
  9
$PINSBASE
 10
0.0
 20
0.0
 30
0.0
  9
$PLIMCHECK
 70
     0
  9
$PEXTMIN
 10
1.0000000000E+20
 20
1.0000000000E+20
 30
1.0000000000E+20
  9
$PEXTMAX
 10
-1.0000000000E+20
 20
-1.0000000000E+20
 30
-1.0000000000E+20
  9
$PLIMMIN
 10
0.0
 20
0.0
  9
$PLIMMAX
 10
420.0
 20
297.0
  9
$UNITMODE
 70
     0
  9
$VISRETAIN
 70
     1
  9
$PLINEGEN
 70
     0
  9
$PSLTSCALE
 70
     1
  9
$TREEDEPTH
 70
  3020
  9
$CMLSTYLE
  2
Standard
  9
$CMLJUST
 70
     0
  9
$CMLSCALE
 40
20.0
  9
$PROXYGRAPHICS
 70
     1
  9
$MEASUREMENT
 70
     1
  9
$CELWEIGHT
370
    -1
  9
$ENDCAPS
280
     0
  9
$JOINSTYLE
280
     0
  9
$LWDISPLAY
290
     1
  9
$INSUNITS
 70
     4
  9
$HYPERLINKBASE
  1

  9
$STYLESHEET
  1

  9
$XEDIT
290
     1
  9
$CEPSNTYPE
380
     0
  9
$PSTYLEMODE
290
     1
  9
$FINGERPRINTGUID
  2
{313AFDB2-39D8-4081-95C7-E5CB31FF041E}
  9
$VERSIONGUID
  2
{FAEB1C32-E019-11D5-929B-00C0DF256EC4}
  9
$EXTNAMES
290
     1
  9
$PSVPSCALE
 40
0.0
  9
$OLESTARTUP
290
     0
  0
ENDSEC
  0
SECTION
  2
CLASSES
  0
CLASS
  1
ACDBDICTIONARYWDFLT
  2
AcDbDictionaryWithDefault
  3
ObjectDBX Classes
 90
        0
280
     0
281
     0
  0
CLASS
  1
VISUALSTYLE
  2
AcDbVisualStyle
  3
ObjectDBX Classes
 90
     4095
280
     0
281
     0
  0
CLASS
  1
MATERIAL
  2
AcDbMaterial
  3
ObjectDBX Classes
 90
     1153
280
     0
281
     0
  0
CLASS
  1
ACDBPLACEHOLDER
  2
AcDbPlaceHolder
  3
ObjectDBX Classes
 90
        0
280
     0
281
     0
  0
CLASS
  1
LAYOUT
  2
AcDbLayout
  3
ObjectDBX Classes
 90
        0
280
     0
281
     0
  0
ENDSEC
  0
SECTION
  2
TABLES
  0
TABLE
  2
VPORT
  5
8
330
0
100
AcDbSymbolTable
 70
     1
  0
VPORT
  5
29
330
8
100
AcDbSymbolTableRecord
100
AcDbViewportTableRecord
  2
*Active
 70
     0
 10
0.0
 20
0.0
 11
1.0
 21
1.0
 12
420.0
 22
297.0
 13
0.0
 23
0.0
 14
10.0
 24
10.0
 15
10.0
 25
10.0
 16
0.0
 26
0.0
 36
1.0
 17
0.0
 27
0.0
 37
0.0
 40
594.0
 41
1.4141414141
 42
50.0
 43
0.0
 44
0.0
 50
0.0
 51
0.0
 71
     0
 72
  2000
 73
     1
 74
     3
 75
     0
 76
     0
 77
     0
 78
     0
281
     0
 65
     1
110
0.0
120
0.0
130
0.0
111
1.0
121
0.0
131
0.0
112
0.0
122
1.0
132
0.0
 79
     0
146
0.0
  0
ENDTAB
  0
TABLE
  2
LTYPE
  5
5
330
0
100
AcDbSymbolTable
 70
     6
  0
LTYPE
  5
14
330
5
100
AcDbSymbolTableRecord
100
AcDbLinetypeTableRecord
  2
ByBlock
 70
     0
  3

 72
    65
 73
     0
 40
0.0
  0
LTYPE
  5
15
330
5
100
AcDbSymbolTableRecord
100
AcDbLinetypeTableRecord
  2
ByLayer
 70
     0
  3

 72
    65
 73
     0
 40
0.0
  0
LTYPE
  5
16
330
5
100
AcDbSymbolTableRecord
100
AcDbLinetypeTableRecord
  2
Continuous
 70
     0
  3
Solid line
 72
    65
 73
     0
 40
0.0
  0
LTYPE
  5
3F
330
5
100
AcDbSymbolTableRecord
100
AcDbLinetypeTableRecord
  2
HIDDEN
 70
     0
  3
Hidden __ __ __ __ __ __ __ __ __ __ __ __ __ __
 72
    65
 73
     2
 40
1.905
 49
1.27
 74
     0
 49
-0.635
 74
     0
  0
LTYPE
  5
40
330
5
100
AcDbSymbolTableRecord
100
AcDbLinetypeTableRecord
  2
PHANTOM
 70
     0
  3
Phantom ______  __  __  ______  __  __  ______
 72
    65
 73
     6
 40
12.7
 49
6.35
 74
     0
 49
-1.27
 74
     0
 49
1.27
 74
     0
 49
-1.27
 74
     0
 49
1.27
 74
     0
 49
-1.27
 74
     0
  0
LTYPE
  5
41
330
5
100
AcDbSymbolTableRecord
100
AcDbLinetypeTableRecord
  2
CENTER
 70
     0
  3
Center ____ _ ____ _ ____ _ ____ _ ____ _ ____
 72
    65
 73
     4
 40
10.16
 49
6.35
 74
     0
 49
-1.27
 74
     0
 49
1.27
 74
     0
 49
-1.27
 74
     0
  0
LTYPE
  5
42
330
5
100
AcDbSymbolTableRecord
100
AcDbLinetypeTableRecord
  2
CENTERX2
 70
     0
  3
Center (2x) ________  __  ________  __  _____
 72
    65
 73
     4
 40
20.32
 49
12.7
 74
     0
 49
-2.54
 74
     0
 49
2.54
 74
     0
 49
-2.54
 74
     0
  0
LTYPE
  5
43
330
5
100
AcDbSymbolTableRecord
100
AcDbLinetypeTableRecord
  2
DOT2
 70
     0
  3
Dot (.5x) ........................................
 72
    65
 73
     2
 40
0.635
 49
0.0
 74
     0
 49
-0.635
 74
     0
  0
ENDTAB
  0
TABLE
  2
LAYER
  5
2
330
0
100
AcDbSymbolTable
 70
     1
  0
LAYER
  5
10
330
2
100
AcDbSymbolTableRecord
100
AcDbLayerTableRecord
  2
0
 70
     0
 62
     7
  6
Continuous
370
    -3
390
F
  0
ENDTAB
  0
TABLE
  2
STYLE
  5
3
330
0
100
AcDbSymbolTable
 70
     2
  0
STYLE
  5
11
330
3
100
AcDbSymbolTableRecord
100
AcDbTextStyleTableRecord
  2
Standard
 70
     0
 40
0.0
 41
1.0
 50
0.0
 71
     0
 42
2.5
  3
txt
  4
bigfont
  0
STYLE
  5
44
330
3
100
AcDbSymbolTableRecord
100
AcDbTextStyleTableRecord
  2
SLDTEXTSTYLE0
 70
     0
 40
0.0
 41
0.7
 50
0.0
 71
     0
 42
0.2
  3
TXT
  4
bigfont
  0
ENDTAB
  0
TABLE
  2
VIEW
  5
6
330
0
100
AcDbSymbolTable
 70
     0
  0
ENDTAB
  0
TABLE
  2
UCS
  5
7
330
0
100
AcDbSymbolTable
 70
     0
  0
ENDTAB
  0
TABLE
  2
APPID
  5
9
330
0
100
AcDbSymbolTable
 70
     1
  0
APPID
  5
12
330
9
100
AcDbSymbolTableRecord
100
AcDbRegAppTableRecord
  2
ACAD
 70
     0
  0
ENDTAB
  0
TABLE
  2
DIMSTYLE
  5
A
330
0
100
AcDbSymbolTable
 70
     1
100
AcDbDimStyleTable
  0
DIMSTYLE
105
27
330
A
100
AcDbSymbolTableRecord
100
AcDbDimStyleTableRecord
  2
ISO-25
 70
     0
 41
2.5
 42
0.625
 43
3.75
 44
1.25
 73
     0
 74
     0
 77
     1
 78
     8
140
2.5
141
2.5
143
0.0393700787
147
0.625
171
     3
172
     1
178
     0
271
     2
272
     2
274
     3
278
    44
283
     0
284
     8
340
11
  0
ENDTAB
  0
TABLE
  2
BLOCK_RECORD
  5
1
330
0
100
AcDbSymbolTable
 70
     1
  0
BLOCK_RECORD
  5
1F
330
1
100
AcDbSymbolTableRecord
100
AcDbBlockTableRecord
  2
*Model_Space
340
22
  0
BLOCK_RECORD
  5
1B
330
1
100
AcDbSymbolTableRecord
100
AcDbBlockTableRecord
  2
*Paper_Space
340
1E
  0
BLOCK_RECORD
  5
23
330
1
100
AcDbSymbolTableRecord
100
AcDbBlockTableRecord
  2
*Paper_Space0
340
26
  0
ENDTAB
  0
ENDSEC
  0
SECTION
  2
BLOCKS
  0
BLOCK
  5
20
330
1F
100
AcDbEntity
  8
0
100
AcDbBlockBegin
  2
*Model_Space
 70
     0
 10
0.0
 20
0.0
 30
0.0
  3
*Model_Space
  1

  0
ENDBLK
  5
21
330
1F
100
AcDbEntity
  8
0
100
AcDbBlockEnd
  0
BLOCK
  5
1C
330
1B
100
AcDbEntity
 67
     1
  8
0
100
AcDbBlockBegin
  2
*Paper_Space
 70
     0
 10
0.0
 20
0.0
 30
0.0
  3
*Paper_Space
  1

  0
ENDBLK
  5
1D
330
1B
100
AcDbEntity
 67
     1
  8
0
100
AcDbBlockEnd
  0
BLOCK
  5
24
330
23
100
AcDbEntity
  8
0
100
AcDbBlockBegin
  2
*Paper_Space0
 70
     0
 10
0.0
 20
0.0
 30
0.0
  3
*Paper_Space0
  1

  0
ENDBLK
  5
25
330
23
100
AcDbEntity
  8
0
100
AcDbBlockEnd
  0
ENDSEC
  0
SECTION
  2
ENTITIES
  0
MTEXT
  5
45
330
1F
100
AcDbEntity
  8
0
  6
Continuous
 62
     7
370
     0
100
AcDbMText
 10
168.6757254069
 20
536.630551241
 30
0.0
 40
7.0
 41
0.0
 71
     1
 72
     1
  1
CHB-502N
  7
SLDTEXTSTYLE0
 73
     1
 44
1.0
  0
LINE
  5
46
330
1F
100
AcDbEntity
  8
0
  6
Continuous
 62
     7
370
    15
100
AcDbLine
 10
381.2551317897
 20
273.096532296
 30
0.0
 11
381.3551334825
 21
273.096532296
 31
0.0
  0
LINE
  5
47
330
1F
100
AcDbEntity
  8
0
  6
Continuous
 62
     7
370
    15
100
AcDbLine
 10
381.3551334825
 20
279.096532581
 30
0.0
 11
381.2551317897
 21
279.096532581
 31
0.0
  0
LINE
  5
48
330
1F
100
AcDbEntity
  8
0
  6
Continuous
 62
     7
370
    15
100
AcDbLine
 10
381.2551317897
 20
263.096531821
 30
0.0
 11
381.3551334825
 21
263.096531821
 31
0.0
  0
LINE
  5
49
330
1F
100
AcDbEntity
  8
0
  6
Continuous
 62
     7
370
    15
100
AcDbLine
 10
381.3551334825
 20
269.096532106
 30
0.0
 11
381.2551317897
 21
269.096532106
 31
0.0
  0
LINE
  5
4A
330
1F
100
AcDbEntity
  8
0
  6
Continuous
 62
     7
370
    15
100
AcDbLine
 10
382.5551239934
 20
282.5965322233
 30
0.0
 11
381.3551334825
 21
282.5965322233
 31
0.0
  0
LINE
  5
4B
330
1F
100
AcDbEntity
  8
0
  6
Continuous
 62
     7
370
    15
100
AcDbLine
 10
381.3551334825
 20
259.5965321786
 30
0.0
 11
382.5551239934
 21
259.5965321786
 31
0.0
  0
LINE
  5
4C
330
1F
100
AcDbEntity
  8
0
  6
Continuous
 62
     7
370
    15
100
AcDbLine
 10
694.055136868
 20
380.0965295784
 30
0.0
 11
694.055136868
 21
415.0965260021
 31
0.0
  0
LINE
  5
4D
330
1F
100
AcDbEntity
  8
0
  6
Continuous
 62
     7
370
    15
100
AcDbLine
 10
694.055136868
 20
127.0965383999
 30
0.0
 11
694.055136868
 21
162.0965348236
 31
0.0
  0
LINE
  5
4E
330
1F
100
AcDbEntity
  8
0
  6
Continuous
 62
     7
370
    15
100
AcDbLine
 10
373.4503207889
 20
274.9965320952
 30
0.0
 11
373.4503207889
 21
266.3965322688
 31
0.0
  0
LINE
  5
4F
330
1F
100
AcDbEntity
  8
0
  6
Continuous
 62
     7
370
    15
100
AcDbLine
 10
374.0551291194
 20
279.0962783299
 30
0.0
 11
374.0551291194
 21
278.2965320773
 31
0.0
  0
LINE
  5
50
330
1F
100
AcDbEntity
  8
0
  6
Continuous
 62
     7
370
    15
100
AcDbLine
 10
374.0551291194
 20
263.8965323247
 30
0.0
 11
374.0551291194
 21
263.0967860721
 31
0.0
  0
LINE
  5
51
330
1F
100
AcDbEntity
  8
0
  6
Continuous
 62
     7
370
    15
100
AcDbLine
 10
375.4551230159
 20
279.3965320714
 30
0.0
 11
375.4551230159
 21
279.096532581
 31
0.0
  0
ARC
  5
52
330
1F
100
AcDbEntity
  8
0
  6
Continuous
 62
     7
370
    15
100
AcDbCircle
 10
377.6551299539
 20
276.2893893439
 30
0.0
 40
3.807142857143162
100
AcDbArc
 50
77.9663271603
 51
90.0
  0
ARC
  5
53
330
1F
100
AcDbEntity
  8
0
  6
Continuous
 62
     7
370
    15
100
AcDbCircle
 10
377.6551299539
 20
276.2893893439
 30
0.0
 40
3.807142857143162
100
AcDbArc
 50
90.0
 51
125.3002484399
  0
LINE
  5
54
330
1F
100
AcDbEntity
  8
0
  6
Continuous
 62
     7
370
    15
100
AcDbLine
 10
375.5551247087
 20
262.6965325005
 30
0.0
 11
375.5551247087
 21
262.2965322487
 31
0.0
  0
ARC
  5
55
330
1F
100
AcDbEntity
  8
0
  6
Continuous
 62
     7
370
    15
100
AcDbCircle
 10
375.7551299539
 20
263.096532201
 30
0.0
 40
0.4000000000008299
100
AcDbArc
 50
270.0
 51
0.0
  0
LINE
  5
56
330
1F
100
AcDbEntity
  8
0
  6
Continuous
 62
     7
370
    15
100
AcDbLine
 10
376.1551348653
 20
278.2965320773
 30
0.0
 11
376.1551348653
 21
277.8465323761
 31
0.0
  0
LINE
  5
57
330
1F
100
AcDbEntity
  8
0
  6
Continuous
 62
     7
370
    15
100
AcDbLine
 10
376.1551348653
 20
264.3465320259
 30
0.0
 11
376.1551348653
 21
263.8965323247
 31
0.0
  0
SPLINE
  5
58
330
1F
100
AcDbEntity
  8
0
  6
Continuous
 62
     7
370
    15
100
AcDbSpline
210
0.0
220
0.0
230
1.0
 70
     8
 71
     3
 72
    11
 73
     7
 74
     0
 42
0.00000001
 43
0.00000001
 40
0.0
 40
0.0
 40
0.0
 40
0.0
 40
0.2262236325897269
 40
0.4679485216363518
 40
0.7254888709054915
 40
1.0
 40
1.0
 40
1.0
 40
1.0
 10
378.8756398644627
 20
279.3269669316393
 30
0.0
 10
378.8784669670007
 20
279.3040677470703
 30
0.0
 10
378.8843148903056
 20
279.2567002839848
 30
0.0
 10
378.9010746188112
 20
278.9319176277309
 30
0.0
 10
378.9146761794606
 20
278.4314184338991
 30
0.0
 10
378.9152100960598
 20
278.0075971897166
 30
0.0
 10
378.915485569495
 20
277.7889272808713
 30
0.0
  0
SPLINE
  5
59
330
1F
100
AcDbEntity
  8
0
  6
Continuous
 62
     7
370
    15
100
AcDbSpline
210
0.0
220
0.0
230
1.0
 70
     8
 71
     3
 72
    12
 73
     8
 74
     0
 42
0.00000001
 43
0.00000001
 40
0.0
 40
0.0
 40
0.0
 40
0.0
 40
0.2489433810545054
 40
0.4822897574529931
 40
0.6998115288059334
 40
0.9035368986525243
 40
1.0
 40
1.0
 40
1.0
 40
1.0
 10
378.915485569495
 20
264.2302964493317
 30
0.0
 10
378.9140596935729
 20
264.0929618490367
 30
0.0
 10
378.9112972768751
 20
263.8268970483356
 30
0.0
 10
378.900396313816
 20
263.4910950942068
 30
0.0
 10
378.8978860075487
 20
263.2579190353716
 30
0.0
 10
378.902675165225
 20
263.1378129474703
 30
0.0
 10
378.9291056676783
 20
263.1364665286499
 30
0.0
 10
378.9375988927067
 20
263.136033868013
 30
0.0
  0
LINE
  5
5A
330
1F
100
AcDbEntity
  8
0
  6
Continuous
 62
     7
370
    15
100
AcDbLine
 10
378.9146362033
 20
277.8389271959
 30
0.0
 11
378.9146362033
 21
264.1802965343
 31
0.0
  0
LINE
  5
5B
330
1F
100
AcDbEntity
  8
0
  6
Continuous
 62
     7
370
    15
100
AcDbLine
 10
377.3910222736
 20
281.7768156208
 30
0.0
 11
378.8783816781
 21
279.2966682143
 31
0.0
  0
LINE
  5
5C
330
1F
100
AcDbEntity
  8
0
  6
Continuous
 62
     7
370
    15
100
AcDbLine
 10
381.3551334825
 20
280.9997778065
 30
0.0
 11
379.9638418641
 21
283.3197414554
 31
0.0
  0
LINE
  5
5D
330
1F
100
AcDbEntity
  8
0
  6
Continuous
 62
     7
370
    15
100
AcDbLine
 10
378.9428739038
 20
263.0039481125
 30
0.0
 11
377.3737965312
 21
260.387529587
 31
0.0
  0
LINE
  5
5E
330
1F
100
AcDbEntity
  8
0
  6
Continuous
 62
     7
370
    15
100
AcDbLine
 10
379.9466161218
 20
258.8446037523
 30
0.0
 11
381.3551334825
 21
261.1932865955
 31
0.0
  0
LINE
  5
5F
330
1F
100
AcDbEntity
  8
0
  6
Continuous
 62
     7
370
    15
100
AcDbLine
 10
379.9837349143
 20
283.2842329196
 30
0.0
 11
379.8937766042
 21
283.3980200492
 31
0.0
  0
SPLINE
  5
60
330
1F
100
AcDbEntity
  8
0
  6
Continuous
 62
     7
370
    15
100
AcDbSpline
210
0.0
220
0.0
230
1.0
 70
     8
 71
     3
 72
    20
 73
    16
 74
     0
 42
0.00000001
 43
0.00000001
 40
0.0
 40
0.0
 40
0.0
 40
0.0
 40
0.0337795030354787
 40
0.1101057769667599
 40
0.1739290778953664
 40
0.2252747011104207
 40
0.2665371383718143
 40
0.3037733648558273
 40
0.3388589648229627
 40
0.3726389433837576
 40
0.4139176712929965
 40
0.6259828174977032
 40
0.8390272844879489
 40
0.9659462446907114
 40
1.0
 40
1.0
 40
1.0
 40
1.0
 10
379.7814665522755
 20
283.5400895826203
 30
0.0
 10
379.7408112493283
 20
283.5962751365873
 30
0.0
 10
379.6082934999069
 20
283.7794144227799
 30
0.0
 10
379.2984235656874
 20
283.9565875665782
 30
0.0
 10
378.9111496132613
 20
284.0795464930973
 30
0.0
 10
378.5413013679477
 20
284.0943338960863
 30
0.0
 10
378.2069851791961
 20
284.043745788151
 30
0.0
 10
377.9325089683827
 20
283.9426907161234
 30
0.0
 10
377.7049946671366
 20
283.8079859794453
 30
0.0
 10
377.4989787772949
 20
283.6317963669681
 30
0.0
 10
377.1544095517419
 20
283.1893187366771
 30
0.0
 10
376.9733616716102
 20
282.5026349152479
 30
0.0
 10
376.823547032711
 20
281.3218035756759
 30
0.0
 10
376.7684293034148
 20
280.41716011504
 30
0.0
 10
376.7618677362508
 20
280.002572187275
 30
0.0
 10
376.7604796376408
 20
279.9148661695105
 30
0.0
  0
SPLINE
  5
61
330
1F
100
AcDbEntity
  8
0
  6
Continuous
 62
     7
370
    15
100
AcDbSpline
210
0.0
220
0.0
230
1.0
 70
     8
 71
     3
 72
    19
 73
    15
 74
     0
 42
0.00000001
 43
0.00000001
 40
0.0
 40
0.0
 40
0.0
 40
0.0
 40
0.0102737072591294
 40
0.1295969162292759
 40
0.3268123458649628
 40
0.5525079253641859
 40
0.585853198266546
 40
0.6186007254317911
 40
0.6529065940735373
 40
0.6960059810056629
 40
0.7523135027976446
 40
0.8223141371033088
 40
0.9054608643355189
 40
1.0
 40
1.0
 40
1.0
 40
1.0
 10
376.7576335158528
 20
262.2965322486741
 30
0.0
 10
376.7579566981506
 20
262.2693332792871
 30
0.0
 10
376.7620334572123
 20
261.9262339025727
 30
0.0
 10
376.8018213505191
 20
261.1062437502703
 30
0.0
 10
376.9368144354675
 20
259.8838166359331
 30
0.0
 10
377.0272045151501
 20
259.2404459125466
 30
0.0
 10
377.3780957571715
 20
258.7003542506274
 30
0.0
 10
377.5473175276619
 20
258.5125057618819
 30
0.0
 10
377.7840357705826
 20
258.3360341081818
 30
0.0
 10
378.097657299657
 20
258.1825488580438
 30
0.0
 10
378.5011505100501
 20
258.0807695211594
 30
0.0
 10
378.9870037259402
 20
258.1039301475066
 30
0.0
 10
379.5167709847781
 20
258.3142537640478
 30
0.0
 10
379.7819901723333
 20
258.6360731413863
 30
0.0
 10
379.923102089423
 20
258.8072996265871
 30
0.0
  0
LINE
  5
62
330
1F
100
AcDbEntity
  8
0
  6
Continuous
 62
     7
370
    15
100
AcDbLine
 10
694.055136868
 20
91.0965250484
 30
0.0
 11
694.055136868
 21
126.0965363733
 31
0.0
  0
LINE
  5
63
330
1F
100
AcDbEntity
  8
0
  6
Continuous
 62
     7
370
    15
100
AcDbLine
 10
694.055136868
 20
416.0965280287
 30
0.0
 11
694.055136868
 21
451.0965393535
 31
0.0
  0
LINE
  5
64
330
1F
100
AcDbEntity
  8
0
  6
Continuous
 62
     7
370
    15
100
AcDbLine
 10
691.0551307883
 20
126.0965363733
 30
0.0
 11
691.0551307883
 21
127.0965383999
 31
0.0
  0
LINE
  5
65
330
1F
100
AcDbEntity
  8
0
  6
Continuous
 62
     7
370
    15
100
AcDbLine
 10
691.0551307883
 20
162.0965348236
 30
0.0
 11
691.0551307883
 21
163.0965293996
 31
0.0
  0
LINE
  5
66
330
1F
100
AcDbEntity
  8
0
  6
Continuous
 62
     7
370
    15
100
AcDbLine
 10
686.0551355567
 20
163.0965293996
 30
0.0
 11
686.0551355567
 21
162.0965348236
 31
0.0
  0
LINE
  5
67
330
1F
100
AcDbEntity
  8
0
  6
Continuous
 62
     7
370
    15
100
AcDbLine
 10
686.0551355567
 20
127.0965383999
 30
0.0
 11
686.0551355567
 21
126.0965363733
 31
0.0
  0
LINE
  5
68
330
1F
100
AcDbEntity
  8
0
  6
Continuous
 62
     7
370
    15
100
AcDbLine
 10
686.0551355567
 20
416.0965280287
 30
0.0
 11
686.0551355567
 21
415.0965260021
 31
0.0
  0
LINE
  5
69
330
1F
100
AcDbEntity
  8
0
  6
Continuous
 62
     7
370
    15
100
AcDbLine
 10
686.0551355567
 20
380.0965295784
 30
0.0
 11
686.0551355567
 21
379.0965350024
 31
0.0
  0
LINE
  5
6A
330
1F
100
AcDbEntity
  8
0
  6
Continuous
 62
     7
370
    15
100
AcDbLine
 10
691.0551307883
 20
379.0965350024
 30
0.0
 11
691.0551307883
 21
380.0965295784
 31
0.0
  0
LINE
  5
6B
330
1F
100
AcDbEntity
  8
0
  6
Continuous
 62
     7
370
    15
100
AcDbLine
 10
691.0551307883
 20
415.0965260021
 30
0.0
 11
691.0551307883
 21
416.0965280287
 31
0.0
  0
LINE
  5
6C
330
1F
100
AcDbEntity
  8
0
  6
Continuous
 62
     7
370
    15
100
AcDbLine
 10
374.255132505
 20
277.8465323761
 30
0.0
 11
374.255132505
 21
277.553721299
 31
0.0
  0
LINE
  5
6D
330
1F
100
AcDbEntity
  8
0
  6
Continuous
 62
     7
370
    15
100
AcDbLine
 10
374.255132505
 20
264.639343103
 30
0.0
 11
374.255132505
 21
264.3465320259
 31
0.0
  0
LINE
  5
6E
330
1F
100
AcDbEntity
  8
0
  6
Continuous
 62
     7
370
    15
100
AcDbLine
 10
397.5551245895
 20
86.0965298168
 30
0.0
 11
397.5551245895
 21
456.0965345852
 31
0.0
  0
LINE
  5
6F
330
1F
100
AcDbEntity
  8
0
  6
Continuous
 62
     7
370
    15
100
AcDbLine
 10
382.5551239934
 20
86.0965298168
 30
0.0
 11
397.5551245895
 21
86.0965298168
 31
0.0
  0
LINE
  5
70
330
1F
100
AcDbEntity
  8
0
  6
Continuous
 62
     7
370
    15
100
AcDbLine
 10
382.5551239934
 20
86.0965298168
 30
0.0
 11
382.5551239934
 21
261.1090400867
 31
0.0
  0
LINE
  5
71
330
1F
100
AcDbEntity
  8
0
  6
Continuous
 62
     7
370
    15
100
AcDbLine
 10
382.5551239934
 20
281.0840243153
 30
0.0
 11
382.5551239934
 21
456.0965345852
 31
0.0
  0
LINE
  5
72
330
1F
100
AcDbEntity
  8
0
  6
Continuous
 62
     7
370
    15
100
AcDbLine
 10
382.5551239934
 20
456.0965345852
 30
0.0
 11
397.5551245895
 21
456.0965345852
 31
0.0
  0
ARC
  5
73
330
1F
100
AcDbEntity
  8
0
  6
Continuous
 62
     7
370
    15
100
AcDbCircle
 10
397.5551299539
 20
86.096532201
 30
0.0
 40
15.00000000000001
100
AcDbArc
 50
180.0
 51
270.0
  0
LINE
  5
74
330
1F
100
AcDbEntity
  8
0
  6
Continuous
 62
     7
370
    15
100
AcDbLine
 10
397.5551245895
 20
71.0965292208
 30
0.0
 11
397.5551245895
 21
86.0965298168
 31
0.0
  0
LINE
  5
75
330
1F
100
AcDbEntity
  8
0
  6
Continuous
 62
     7
370
    15
100
AcDbLine
 10
662.5551251855
 20
91.0965250484
 30
0.0
 11
662.5551251855
 21
451.0965393535
 31
0.0
  0
LINE
  5
76
330
1F
100
AcDbEntity
  8
0
  6
Continuous
 62
     7
370
    15
100
AcDbLine
 10
402.5551347223
 20
451.0965393535
 30
0.0
 11
662.5551251855
 21
451.0965393535
 31
0.0
  0
LINE
  5
77
330
1F
100
AcDbEntity
  8
0
  6
Continuous
 62
     7
370
    15
100
AcDbLine
 10
667.5551353183
 20
86.0965298168
 30
0.0
 11
667.5551353183
 21
456.0965345852
 31
0.0
  0
LINE
  5
78
330
1F
100
AcDbEntity
  8
0
  6
Continuous
 62
     7
370
    15
100
AcDbLine
 10
667.5551353183
 20
86.0965298168
 30
0.0
 11
397.5551245895
 21
86.0965298168
 31
0.0
  0
LINE
  5
79
330
1F
100
AcDbEntity
  8
0
  6
Continuous
 62
     7
370
    15
100
AcDbLine
 10
397.5551245895
 20
456.0965345852
 30
0.0
 11
667.5551353183
 21
456.0965345852
 31
0.0
  0
LINE
  5
7A
330
1F
100
AcDbEntity
  8
0
  6
Continuous
 62
     7
370
    15
100
AcDbLine
 10
662.5551251855
 20
91.0965250484
 30
0.0
 11
402.5551347223
 21
91.0965250484
 31
0.0
  0
LINE
  5
7B
330
1F
100
AcDbEntity
  8
0
  6
Continuous
 62
     7
370
    15
100
AcDbLine
 10
402.5551347223
 20
91.0965250484
 30
0.0
 11
402.5551347223
 21
451.0965393535
 31
0.0
  0
LINE
  5
7C
330
1F
100
AcDbEntity
  8
0
  6
Continuous
 62
     7
370
    15
100
AcDbLine
 10
667.5551353183
 20
86.0965298168
 30
0.0
 11
667.5551353183
 21
71.0965292208
 31
0.0
  0
LINE
  5
7D
330
1F
100
AcDbEntity
  8
0
  6
Continuous
 62
     7
370
    15
100
AcDbLine
 10
667.5551353183
 20
71.0965292208
 30
0.0
 11
397.5551245895
 21
71.0965292208
 31
0.0
  0
ARC
  5
7E
330
1F
100
AcDbEntity
  8
0
  6
Continuous
 62
     7
370
    15
100
AcDbCircle
 10
397.5551299539
 20
456.096532201
 30
0.0
 40
15.0
100
AcDbArc
 50
90.0
 51
180.0
  0
LINE
  5
7F
330
1F
100
AcDbEntity
  8
0
  6
Continuous
 62
     7
370
    15
100
AcDbLine
 10
397.5551245895
 20
456.0965345852
 30
0.0
 11
397.5551245895
 21
471.0965351812
 31
0.0
  0
LINE
  5
80
330
1F
100
AcDbEntity
  8
0
  6
Continuous
 62
     7
370
    15
100
AcDbLine
 10
397.5551245895
 20
471.0965351812
 30
0.0
 11
667.5551353183
 21
471.0965351812
 31
0.0
  0
LINE
  5
81
330
1F
100
AcDbEntity
  8
0
  6
Continuous
 62
     7
370
    15
100
AcDbLine
 10
667.5551353183
 20
471.0965351812
 30
0.0
 11
667.5551353183
 21
456.0965345852
 31
0.0
  0
LINE
  5
82
330
1F
100
AcDbEntity
  8
0
  6
Continuous
 62
     7
370
    15
100
AcDbLine
 10
682.5551359143
 20
86.0965298168
 30
0.0
 11
682.5551359143
 21
456.0965345852
 31
0.0
  0
LINE
  5
83
330
1F
100
AcDbEntity
  8
0
  6
Continuous
 62
     7
370
    15
100
AcDbLine
 10
667.5551353183
 20
86.0965298168
 30
0.0
 11
682.5551359143
 21
86.0965298168
 31
0.0
  0
LINE
  5
84
330
1F
100
AcDbEntity
  8
0
  6
Continuous
 62
     7
370
    15
100
AcDbLine
 10
682.5551359143
 20
456.0965345852
 30
0.0
 11
667.5551353183
 21
456.0965345852
 31
0.0
  0
ARC
  5
85
330
1F
100
AcDbEntity
  8
0
  6
Continuous
 62
     7
370
    15
100
AcDbCircle
 10
667.5551299539
 20
86.096532201
 30
0.0
 40
15.00000000000001
100
AcDbArc
 50
270.0
 51
0.0
  0
ARC
  5
86
330
1F
100
AcDbEntity
  8
0
  6
Continuous
 62
     7
370
    15
100
AcDbCircle
 10
667.5551299539
 20
456.096532201
 30
0.0
 40
15.0
100
AcDbArc
 50
0.0
 51
90.0
  0
LINE
  5
87
330
1F
100
AcDbEntity
  8
0
  6
Continuous
 62
     7
370
    15
100
AcDbLine
 10
381.3551334825
 20
282.131015291
 30
0.0
 11
382.5551239934
 21
282.131015291
 31
0.0
  0
LINE
  5
88
330
1F
100
AcDbEntity
  8
0
  6
Continuous
 62
     7
370
    15
100
AcDbLine
 10
382.5551239934
 20
281.0840243153
 30
0.0
 11
382.5551239934
 21
261.1090400867
 31
0.0
  0
LINE
  5
89
330
1F
100
AcDbEntity
  8
0
  6
Continuous
 62
     7
370
    15
100
AcDbLine
 10
381.3551334825
 20
260.0620491109
 30
0.0
 11
382.5551239934
 21
260.0620491109
 31
0.0
  0
LINE
  5
8A
330
1F
100
AcDbEntity
  8
0
  6
Continuous
 62
     7
370
    15
100
AcDbLine
 10
381.3551334825
 20
260.0620491109
 30
0.0
 11
381.3551334825
 21
282.131015291
 31
0.0
  0
LINE
  5
8B
330
1F
100
AcDbEntity
  8
0
  6
Continuous
 62
     7
370
    15
100
AcDbLine
 10
381.2551317897
 20
276.0965320892
 30
0.0
 11
381.2551317897
 21
279.096532581
 31
0.0
  0
LINE
  5
8C
330
1F
100
AcDbEntity
  8
0
  6
Continuous
 62
     7
370
    15
100
AcDbLine
 10
381.2551317897
 20
273.096532296
 30
0.0
 11
381.2551317897
 21
276.0965320892
 31
0.0
  0
LINE
  5
8D
330
1F
100
AcDbEntity
  8
0
  6
Continuous
 62
     7
370
    15
100
AcDbLine
 10
381.2551317897
 20
263.096531821
 30
0.0
 11
381.2551317897
 21
269.096532106
 31
0.0
  0
LINE
  5
8E
330
1F
100
AcDbEntity
  8
0
  6
Continuous
 62
     7
370
    15
100
AcDbLine
 10
381.3551334825
 20
282.131015291
 30
0.0
 11
381.3551334825
 21
282.5965322233
 31
0.0
  0
LINE
  5
8F
330
1F
100
AcDbEntity
  8
0
  6
Continuous
 62
     7
370
    15
100
AcDbLine
 10
381.3551334825
 20
259.5965321786
 30
0.0
 11
381.3551334825
 21
260.0620491109
 31
0.0
  0
LINE
  5
90
330
1F
100
AcDbEntity
  8
0
  6
Continuous
 62
     7
370
    15
100
AcDbLine
 10
683.4564922538
 20
380.0965295784
 30
0.0
 11
694.055136868
 21
380.0965295784
 31
0.0
  0
LINE
  5
91
330
1F
100
AcDbEntity
  8
0
  6
Continuous
 62
     7
370
    15
100
AcDbLine
 10
683.4564922538
 20
415.0965260021
 30
0.0
 11
683.4564922538
 21
380.0965295784
 31
0.0
  0
LINE
  5
92
330
1F
100
AcDbEntity
  8
0
  6
Continuous
 62
     7
370
    15
100
AcDbLine
 10
683.4564922538
 20
415.0965260021
 30
0.0
 11
694.055136868
 21
415.0965260021
 31
0.0
  0
LINE
  5
93
330
1F
100
AcDbEntity
  8
0
  6
Continuous
 62
     7
370
    15
100
AcDbLine
 10
683.4564922538
 20
162.0965348236
 30
0.0
 11
683.4564922538
 21
127.0965383999
 31
0.0
  0
LINE
  5
94
330
1F
100
AcDbEntity
  8
0
  6
Continuous
 62
     7
370
    15
100
AcDbLine
 10
683.4564922538
 20
162.0965348236
 30
0.0
 11
694.055136868
 21
162.0965348236
 31
0.0
  0
LINE
  5
95
330
1F
100
AcDbEntity
  8
0
  6
Continuous
 62
     7
370
    15
100
AcDbLine
 10
683.4564922538
 20
127.0965383999
 30
0.0
 11
694.055136868
 21
127.0965383999
 31
0.0
  0
LINE
  5
96
330
1F
100
AcDbEntity
  8
0
  6
Continuous
 62
     7
370
    15
100
AcDbLine
 10
682.9929767337
 20
415.0965260021
 30
0.0
 11
682.9929767337
 21
380.0965295784
 31
0.0
  0
LINE
  5
97
330
1F
100
AcDbEntity
  8
0
  6
Continuous
 62
     7
370
    15
100
AcDbLine
 10
682.9929767337
 20
415.0965260021
 30
0.0
 11
683.4564922538
 21
415.0965260021
 31
0.0
  0
LINE
  5
98
330
1F
100
AcDbEntity
  8
0
  6
Continuous
 62
     7
370
    15
100
AcDbLine
 10
682.9929767337
 20
380.0965295784
 30
0.0
 11
683.4564922538
 21
380.0965295784
 31
0.0
  0
LINE
  5
99
330
1F
100
AcDbEntity
  8
0
  6
Continuous
 62
     7
370
    15
100
AcDbLine
 10
682.9929767337
 20
162.0965348236
 30
0.0
 11
682.9929767337
 21
127.0965383999
 31
0.0
  0
LINE
  5
9A
330
1F
100
AcDbEntity
  8
0
  6
Continuous
 62
     7
370
    15
100
AcDbLine
 10
682.9929767337
 20
162.0965348236
 30
0.0
 11
683.4564922538
 21
162.0965348236
 31
0.0
  0
LINE
  5
9B
330
1F
100
AcDbEntity
  8
0
  6
Continuous
 62
     7
370
    15
100
AcDbLine
 10
682.9929767337
 20
127.0965383999
 30
0.0
 11
683.4564922538
 21
127.0965383999
 31
0.0
  0
LINE
  5
9C
330
1F
100
AcDbEntity
  8
0
  6
Continuous
 62
     7
370
    15
100
AcDbLine
 10
682.5551359143
 20
162.0965348236
 30
0.0
 11
682.9929767337
 21
162.0965348236
 31
0.0
  0
LINE
  5
9D
330
1F
100
AcDbEntity
  8
0
  6
Continuous
 62
     7
370
    15
100
AcDbLine
 10
682.5551359143
 20
127.0965383999
 30
0.0
 11
682.9929767337
 21
127.0965383999
 31
0.0
  0
LINE
  5
9E
330
1F
100
AcDbEntity
  8
0
  6
Continuous
 62
     7
370
    15
100
AcDbLine
 10
682.5551359143
 20
415.0965260021
 30
0.0
 11
682.9929767337
 21
415.0965260021
 31
0.0
  0
LINE
  5
9F
330
1F
100
AcDbEntity
  8
0
  6
Continuous
 62
     7
370
    15
100
AcDbLine
 10
682.5551359143
 20
380.0965295784
 30
0.0
 11
682.9929767337
 21
380.0965295784
 31
0.0
  0
LINE
  5
A0
330
1F
100
AcDbEntity
  8
0
  6
Continuous
 62
     7
370
    15
100
AcDbLine
 10
374.5071558442
 20
277.5965323351
 30
0.0
 11
375.2376703706
 21
277.5965323351
 31
0.0
  0
ARC
  5
A1
330
1F
100
AcDbEntity
  8
0
  6
Continuous
 62
     7
370
    15
100
AcDbCircle
 10
375.3777916435
 20
276.5077243012
 30
0.0
 40
1.097787277143248
100
AcDbArc
 50
97.3332226099
 51
185.8133219334
  0
LINE
  5
A2
330
1F
100
AcDbEntity
  8
0
  6
Continuous
 62
     7
370
    15
100
AcDbLine
 10
374.2856500831
 20
276.3965320453
 30
0.0
 11
373.5551355567
 21
276.3965320453
 31
0.0
  0
ARC
  5
A3
330
1F
100
AcDbEntity
  8
0
  6
Continuous
 62
     7
370
    15
100
AcDbCircle
 10
374.6472844117
 20
276.5077185141
 30
0.0
 40
1.097793948007182
100
AcDbArc
 50
97.3335616575
 51
185.8129828859
  0
LINE
  5
A4
330
1F
100
AcDbEntity
  8
0
  6
Continuous
 62
     7
370
    15
100
AcDbLine
 10
375.2376703706
 20
277.5965323351
 30
0.0
 11
378.7811068978
 21
277.5965323351
 31
0.0
  0
LINE
  5
A5
330
1F
100
AcDbEntity
  8
0
  6
Continuous
 62
     7
370
    15
100
AcDbLine
 10
378.7811068978
 20
277.5965323351
 30
0.0
 11
378.7811068978
 21
264.5965320669
 31
0.0
  0
LINE
  5
A6
330
1F
100
AcDbEntity
  8
0
  6
Continuous
 62
     7
370
    15
100
AcDbLine
 10
378.7811068978
 20
264.5965320669
 30
0.0
 11
375.2376703706
 21
264.5965320669
 31
0.0
  0
ARC
  5
A7
330
1F
100
AcDbEntity
  8
0
  6
Continuous
 62
     7
370
    15
100
AcDbCircle
 10
375.3777916435
 20
265.6853401008
 30
0.0
 40
1.097787277143304
100
AcDbArc
 50
174.1866780666
 51
262.6667773901
  0
LINE
  5
A8
330
1F
100
AcDbEntity
  8
0
  6
Continuous
 62
     7
370
    15
100
AcDbLine
 10
374.2856500831
 20
276.3965320453
 30
0.0
 11
374.2856500831
 21
265.7965323567
 31
0.0
  0
LINE
  5
A9
330
1F
100
AcDbEntity
  8
0
  6
Continuous
 62
     7
370
    15
100
AcDbLine
 10
375.2376703706
 20
264.5965320669
 30
0.0
 11
374.5071558442
 21
264.5965320669
 31
0.0
  0
ARC
  5
AA
330
1F
100
AcDbEntity
  8
0
  6
Continuous
 62
     7
370
    15
100
AcDbCircle
 10
374.6472844117
 20
265.6853458879
 30
0.0
 40
1.097793948007182
100
AcDbArc
 50
174.1870171141
 51
262.6664383425
  0
LINE
  5
AB
330
1F
100
AcDbEntity
  8
0
  6
Continuous
 62
     7
370
    15
100
AcDbLine
 10
373.5551355567
 20
265.7965323567
 30
0.0
 11
374.2856500831
 21
265.7965323567
 31
0.0
  0
LINE
  5
AC
330
1F
100
AcDbEntity
  8
0
  6
Continuous
 62
     7
370
    15
100
AcDbLine
 10
373.5551355567
 20
276.3965320453
 30
0.0
 11
373.5551355567
 21
265.7965323567
 31
0.0
  0
LINE
  5
AD
330
1F
100
AcDbEntity
  8
0
  6
Continuous
 62
     7
370
    15
100
AcDbLine
 10
378.8626460519
 20
277.5965323351
 30
0.0
 11
378.7811068978
 21
277.5965323351
 31
0.0
  0
LINE
  5
AE
330
1F
100
AcDbEntity
  8
0
  6
Continuous
 62
     7
370
    15
100
AcDbLine
 10
378.7811068978
 20
264.5965320669
 30
0.0
 11
378.9146362033
 21
264.5965320669
 31
0.0
  0
LINE
  5
AF
330
1F
100
AcDbEntity
  8
0
  6
Continuous
 62
     7
370
    15
100
AcDbLine
 10
373.5551355567
 20
274.9965320952
 30
0.0
 11
373.4503207889
 21
274.9965320952
 31
0.0
  0
LINE
  5
B0
330
1F
100
AcDbEntity
  8
0
  6
Continuous
 62
     7
370
    15
100
AcDbLine
 10
373.5551355567
 20
266.3965322688
 30
0.0
 11
373.4503207889
 21
266.3965322688
 31
0.0
  0
LINE
  5
B1
330
1F
100
AcDbEntity
  8
0
  6
Continuous
 62
     7
370
    15
100
AcDbLine
 10
378.9232788768
 20
278.2965320773
 30
0.0
 11
374.0551291194
 21
278.2965320773
 31
0.0
  0
LINE
  5
B2
330
1F
100
AcDbEntity
  8
0
  6
Continuous
 62
     7
370
    15
100
AcDbLine
 10
378.8835970845
 20
279.096532581
 30
0.0
 11
374.055740067
 21
279.096532581
 31
0.0
  0
LINE
  5
B3
330
1F
100
AcDbEntity
  8
0
  6
Continuous
 62
     7
370
    15
100
AcDbLine
 10
378.9210139003
 20
263.8965323247
 30
0.0
 11
374.0551291194
 21
263.8965323247
 31
0.0
  0
LINE
  5
B4
330
1F
100
AcDbEntity
  8
0
  6
Continuous
 62
     7
370
    15
100
AcDbLine
 10
378.9292840448
 20
263.096531821
 30
0.0
 11
374.055740067
 21
263.096531821
 31
0.0
  0
LINE
  5
B5
330
1F
100
AcDbEntity
  8
0
  6
Continuous
 62
     7
370
    15
100
AcDbLine
 10
377.6551304546
 20
279.3965320714
 30
0.0
 11
378.8184939113
 21
279.3965320714
 31
0.0
  0
LINE
  5
B6
330
1F
100
AcDbEntity
  8
0
  6
Continuous
 62
     7
370
    15
100
AcDbLine
 10
378.9816467252
 20
279.3965320714
 30
0.0
 11
379.0439782825
 21
279.3965320714
 31
0.0
  0
LINE
  5
B7
330
1F
100
AcDbEntity
  8
0
  6
Continuous
 62
     7
370
    15
100
AcDbLine
 10
375.4551230159
 20
279.3965320714
 30
0.0
 11
377.6551304546
 21
279.3965320714
 31
0.0
  0
LINE
  5
B8
330
1F
100
AcDbEntity
  8
0
  6
Continuous
 62
     7
370
    15
100
AcDbLine
 10
377.6551304546
 20
262.2965322487
 30
0.0
 11
378.5186378446
 21
262.2965322487
 31
0.0
  0
LINE
  5
B9
330
1F
100
AcDbEntity
  8
0
  6
Continuous
 62
     7
370
    15
100
AcDbLine
 10
375.5551247087
 20
262.2965322487
 30
0.0
 11
377.6551304546
 21
262.2965322487
 31
0.0
  0
LINE
  5
BA
330
1F
100
AcDbEntity
  8
0
  6
Continuous
 62
     7
370
    15
100
AcDbLine
 10
377.6551304546
 20
262.6965325005
 30
0.0
 11
378.7585167375
 21
262.6965325005
 31
0.0
  0
LINE
  5
BB
330
1F
100
AcDbEntity
  8
0
  6
Continuous
 62
     7
370
    15
100
AcDbLine
 10
375.5551247087
 20
262.6965325005
 30
0.0
 11
377.6551304546
 21
262.6965325005
 31
0.0
  0
ARC
  5
BC
330
1F
100
AcDbEntity
  8
0
  6
Continuous
 62
     7
370
    15
100
AcDbCircle
 10
374.5209155916
 20
278.2987685641
 30
0.0
 40
0.802749545683157
100
AcDbArc
 50
125.4673437335
 51
180.1596281405
  0
ARC
  5
BD
330
1F
100
AcDbEntity
  8
0
  6
Continuous
 62
     7
370
    15
100
AcDbCircle
 10
374.5209155916
 20
263.8942958379
 30
0.0
 40
0.8027495456831691
100
AcDbArc
 50
179.8403718595
 51
234.5326562665
  0
LINE
  5
BE
330
1F
100
AcDbEntity
  8
0
  6
Continuous
 62
     7
370
    15
100
AcDbLine
 10
374.506023356
 20
264.3465320259
 30
0.0
 11
374.506023356
 21
263.8965323247
 31
0.0
  0
LINE
  5
BF
330
1F
100
AcDbEntity
  8
0
  6
Continuous
 62
     7
370
    15
100
AcDbLine
 10
374.506023356
 20
278.2965320773
 30
0.0
 11
374.506023356
 21
277.8465323761
 31
0.0
  0
LINE
  5
C0
330
1F
100
AcDbEntity
  8
0
  6
Continuous
 62
     7
370
    15
100
AcDbLine
 10
373.7181691613
 20
263.8965323247
 30
0.0
 11
373.7181691613
 21
265.1249742746
 31
0.0
  0
LINE
  5
C1
330
1F
100
AcDbEntity
  8
0
  6
Continuous
 62
     7
370
    15
100
AcDbLine
 10
373.7181691613
 20
277.0680901274
 30
0.0
 11
373.7181691613
 21
278.2965320773
 31
0.0
  0
SPLINE
  5
C2
330
1F
100
AcDbEntity
  8
0
  6
Continuous
 62
     7
370
    15
100
AcDbSpline
210
0.0
220
0.0
230
1.0
 70
    24
 71
     3
 72
    12
 73
     8
 74
     0
 42
0.00000001
 43
0.00000001
 40
0.0
 40
0.0
 40
0.0
 40
0.0
 40
0.2185051145832685
 40
0.4370116439504236
 40
0.6555200999493015
 40
0.8740268718084363
 40
1.0
 40
1.0
 40
1.0
 40
1.0
 10
380.7144729581059
 20
277.7889272808713
 30
0.0
 10
380.5177528696638
 20
277.7889272808713
 30
0.0
 10
380.1243114190502
 20
277.7889272808713
 30
0.0
 10
379.5635607300186
 20
277.7889272808713
 30
0.0
 10
379.1458878391356
 20
277.7889272808713
 30
0.0
 10
378.9193244579108
 20
277.7889272808713
 30
0.0
 10
378.9368517606893
 20
277.7889272808713
 30
0.0
 10
378.9432613339604
 20
277.7889272808713
 30
0.0
  0
SPLINE
  5
C3
330
1F
100
AcDbEntity
  8
0
  6
Continuous
 62
     7
370
    15
100
AcDbSpline
210
0.0
220
0.0
230
1.0
 70
    24
 71
     3
 72
     9
 73
     5
 74
     0
 42
0.00000001
 43
0.00000001
 40
0.0
 40
0.0
 40
0.0
 40
0.0
 40
0.1970130322720919
 40
1.0
 40
1.0
 40
1.0
 40
1.0
 10
381.3551334824742
 20
277.7889272808713
 30
0.0
 10
381.3224812865496
 20
277.7889272808713
 30
0.0
 10
381.156745063174
 20
277.7889272808713
 30
0.0
 10
380.9114453949099
 20
277.7889272808713
 30
0.0
 10
380.7144729581059
 20
277.7889272808713
 30
0.0
  0
SPLINE
  5
C4
330
1F
100
AcDbEntity
  8
0
  6
Continuous
 62
     7
370
    15
100
AcDbSpline
210
0.0
220
0.0
230
1.0
 70
     8
 71
     3
 72
    13
 73
     9
 74
     0
 42
0.00000001
 43
0.00000001
 40
0.0
 40
0.0
 40
0.0
 40
0.0
 40
0.1877344190872338
 40
0.3754728485412139
 40
0.5632112624932787
 40
0.7509477462650653
 40
0.9386852589542094
 40
1.0
 40
1.0
 40
1.0
 40
1.0
 10
380.4211883034886
 20
281.4037659816128
 30
0.0
 10
380.2244967158421
 20
281.40106569888
 30
0.0
 10
379.8311093388399
 20
281.3956650757312
 30
0.0
 10
379.2980913393143
 20
281.1051328747467
 30
0.0
 10
378.9075643473749
 20
280.6502303148407
 30
0.0
 10
378.7346231931934
 20
280.0885465668508
 30
0.0
 10
378.7378924179314
 20
279.6153532176538
 30
0.0
 10
378.8652271648548
 20
279.3939199136019
 30
0.0
 10
378.8965759959401
 20
279.3394047446233
 30
0.0
  0
SPLINE
  5
C5
330
1F
100
AcDbEntity
  8
0
  6
Continuous
 62
     7
370
    15
100
AcDbSpline
210
0.0
220
0.0
230
1.0
 70
     8
 71
     3
 72
    10
 73
     6
 74
     0
 42
0.00000001
 43
0.00000001
 40
0.0
 40
0.0
 40
0.0
 40
0.0
 40
0.2093438294506487
 40
0.604669948165697
 40
1.0
 40
1.0
 40
1.0
 40
1.0
 10
381.5583704199971
 20
280.5976513452512
 30
0.0
 10
381.5166625152809
 20
280.690714716416
 30
0.0
 10
381.3961931580088
 20
280.9595195050073
 30
0.0
 10
380.9894950860509
 20
281.2761844075844
 30
0.0
 10
380.6106245259065
 20
281.3612386492359
 30
0.0
 10
380.4211883034886
 20
281.4037659816128
 30
0.0
  0
SPLINE
  5
C6
330
1F
100
AcDbEntity
  8
0
  6
Continuous
 62
     7
370
    15
100
AcDbSpline
210
0.0
220
0.0
230
1.0
 70
     8
 71
     3
 72
    13
 73
     9
 74
     0
 42
0.00000001
 43
0.00000001
 40
0.0
 40
0.0
 40
0.0
 40
0.0
 40
0.1768614626580366
 40
0.3537266438978727
 40
0.530591680287995
 40
0.7074549205632471
 40
0.884319107889526
 40
1.0
 40
1.0
 40
1.0
 40
1.0
 10
380.4039625611485
 20
260.7605792261344
 30
0.0
 10
380.2072954833232
 20
260.7632699630341
 30
0.0
 10
379.8139571926699
 20
260.7686514934073
 30
0.0
 10
379.2805717769547
 20
261.0593267016441
 30
0.0
 10
378.8914411175176
 20
261.5136909941453
 30
0.0
 10
378.713281276866
 20
262.0773854556446
 30
0.0
 10
378.7342430346029
 20
262.6105364502124
 30
0.0
 10
378.9003369919948
 20
262.8838062510291
 30
0.0
 10
378.9660154071034
 20
262.9918651334626
 30
0.0
  0
SPLINE
  5
C7
330
1F
100
AcDbEntity
  8
0
  6
Continuous
 62
     7
370
    15
100
AcDbSpline
210
0.0
220
0.0
230
1.0
 70
     8
 71
     3
 72
    10
 73
     6
 74
     0
 42
0.00000001
 43
0.00000001
 40
0.0
 40
0.0
 40
0.0
 40
0.0
 40
0.0588212342684354
 40
0.5294130460425892
 40
1.0
 40
1.0
 40
1.0
 40
1.0
 10
381.4340798344792
 20
261.3604887999279
 30
0.0
 10
381.4234453021743
 20
261.3390084618509
 30
0.0
 10
381.3277305452368
 20
261.1456774079754
 30
0.0
 10
380.9668438697053
 20
260.8915096201169
 30
0.0
 10
380.5915890183851
 20
260.8042225406202
 30
0.0
 10
380.4039625611485
 20
260.7605792261344
 30
0.0
  0
SPLINE
  5
C8
330
1F
100
AcDbEntity
  8
0
  6
Continuous
 62
     7
370
    15
100
AcDbSpline
210
0.0
220
0.0
230
1.0
 70
    24
 71
     3
 72
    12
 73
     8
 74
     0
 42
0.00000001
 43
0.00000001
 40
0.0
 40
0.0
 40
0.0
 40
0.0
 40
0.2193538622243088
 40
0.4387091447280026
 40
0.6580663613471072
 40
0.8774218872847014
 40
1.0
 40
1.0
 40
1.0
 40
1.0
 10
380.7144729581059
 20
264.2302964493317
 30
0.0
 10
380.5177575502477
 20
264.2302964493317
 30
0.0
 10
380.1243254608323
 20
264.2302964493317
 30
0.0
 10
379.5635045622594
 20
264.2302964493317
 30
0.0
 10
379.1460984695756
 20
264.2302964493317
 30
0.0
 10
378.920241855017
 20
264.2302964493317
 30
0.0
 10
378.9372306933076
 20
264.2302964493317
 30
0.0
 10
378.9433209386052
 20
264.2302964493317
 30
0.0
  0
SPLINE
  5
C9
330
1F
100
AcDbEntity
  8
0
  6
Continuous
 62
     7
370
    15
100
AcDbSpline
210
0.0
220
0.0
230
1.0
 70
    24
 71
     3
 72
     9
 73
     5
 74
     0
 42
0.00000001
 43
0.00000001
 40
0.0
 40
0.0
 40
0.0
 40
0.0
 40
0.1970130322720919
 40
1.0
 40
1.0
 40
1.0
 40
1.0
 10
381.3551334824742
 20
264.2302964493317
 30
0.0
 10
381.3224812865496
 20
264.2302964493317
 30
0.0
 10
381.156745063174
 20
264.2302964493317
 30
0.0
 10
380.9114453949099
 20
264.2302964493317
 30
0.0
 10
380.7144729581059
 20
264.2302964493317
 30
0.0
  0
SPLINE
  5
CA
330
1F
100
AcDbEntity
  8
0
  6
Continuous
 62
     7
370
    15
100
AcDbSpline
210
0.0
220
0.0
230
1.0
 70
     8
 71
     3
 72
    13
 73
     9
 74
     0
 42
0.00000001
 43
0.00000001
 40
0.0
 40
0.0
 40
0.0
 40
0.0
 40
0.1768615033144454
 40
0.3537265688979725
 40
0.5305918600777433
 40
0.7074548533138182
 40
0.8843190812971323
 40
1.0
 40
1.0
 40
1.0
 40
1.0
 10
378.8521109309376
 20
284.0201845071894
 30
0.0
 10
378.6554439166628
 20
284.0174936967599
 30
0.0
 10
378.2621059269301
 20
284.0121120217039
 30
0.0
 10
377.7287194747856
 20
283.7214380096509
 30
0.0
 10
377.3395900815591
 20
283.2670733282352
 30
0.0
 10
377.1614294511897
 20
282.7033776906751
 30
0.0
 10
377.1823914360801
 20
282.1702273226987
 30
0.0
 10
377.3484853707635
 20
281.8969574935127
 30
0.0
 10
377.4141637768925
 20
281.7888985998613
 30
0.0
  0
SPLINE
  5
CB
330
1F
100
AcDbEntity
  8
0
  6
Continuous
 62
     7
370
    15
100
AcDbSpline
210
0.0
220
0.0
230
1.0
 70
     8
 71
     3
 72
    10
 73
     6
 74
     0
 42
0.00000001
 43
0.00000001
 40
0.0
 40
0.0
 40
0.0
 40
0.0
 40
0.1474573734895173
 40
0.573730886909061
 40
1.0
 40
1.0
 40
1.0
 40
1.0
 10
379.940700360793
 20
283.3076584763509
 30
0.0
 10
379.9126438139298
 20
283.3679528322478
 30
0.0
 10
379.8034806901436
 20
283.6025476406708
 30
0.0
 10
379.4184007583258
 20
283.8913551001335
 30
0.0
 10
379.0408735572085
 20
283.9772415192693
 30
0.0
 10
378.8521109309376
 20
284.0201845071894
 30
0.0
  0
SPLINE
  5
CC
330
1F
100
AcDbEntity
  8
0
  6
Continuous
 62
     7
370
    15
100
AcDbSpline
210
0.0
220
0.0
230
1.0
 70
     8
 71
     3
 72
    13
 73
     9
 74
     0
 42
0.00000001
 43
0.00000001
 40
0.0
 40
0.0
 40
0.0
 40
0.0
 40
0.1768653836687103
 40
0.3537300190614872
 40
0.5305916012776648
 40
0.7074553904964731
 40
0.8843190319787603
 40
1.0
 40
1.0
 40
1.0
 40
1.0
 10
378.8349000897587
 20
258.1441607005578
 30
0.0
 10
378.6382283098021
 20
258.146851006798
 30
0.0
 10
378.2448855819608
 20
258.1522316078963
 30
0.0
 10
377.7114924806856
 20
258.4429032199425
 30
0.0
 10
377.3223849303641
 20
258.897280340533
 30
0.0
 10
377.144198013773
 20
259.4609636277876
 30
0.0
 10
377.1651669081172
 20
259.9941192114686
 30
0.0
 10
377.3312598660555
 20
260.2673879149004
 30
0.0
 10
377.3969380345524
 20
260.375446607886
 30
0.0
  0
SPLINE
  5
CD
330
1F
100
AcDbEntity
  8
0
  6
Continuous
 62
     7
370
    15
100
AcDbSpline
210
0.0
220
0.0
230
1.0
 70
     8
 71
     3
 72
    10
 73
     6
 74
     0
 42
0.00000001
 43
0.00000001
 40
0.0
 40
0.0
 40
0.0
 40
0.0
 40
0.147459893261942
 40
0.5737376743044033
 40
1.0
 40
1.0
 40
1.0
 40
1.0
 10
379.9234746184529
 20
258.8566867313963
 30
0.0
 10
379.8954181316558
 20
258.7963924065953
 30
0.0
 10
379.7862558155302
 20
258.5617989526064
 30
0.0
 10
379.401179140869
 20
258.2729935463104
 30
0.0
 10
379.023657492151
 20
258.1871044634595
 30
0.0
 10
378.8349000897587
 20
258.1441607005578
 30
0.0
  0
LINE
  5
CE
330
1F
100
AcDbEntity
  8
0
  6
Continuous
 62
     7
370
    15
100
AcDbLine
 10
683.4564922538
 20
126.0965363733
 30
0.0
 11
683.4564922538
 21
91.0965250484
 31
0.0
  0
LINE
  5
CF
330
1F
100
AcDbEntity
  8
0
  6
Continuous
 62
     7
370
    15
100
AcDbLine
 10
694.055136868
 20
126.0965363733
 30
0.0
 11
683.4564922538
 21
126.0965363733
 31
0.0
  0
LINE
  5
D0
330
1F
100
AcDbEntity
  8
0
  6
Continuous
 62
     7
370
    15
100
AcDbLine
 10
694.055136868
 20
91.0965250484
 30
0.0
 11
683.4564922538
 21
91.0965250484
 31
0.0
  0
LINE
  5
D1
330
1F
100
AcDbEntity
  8
0
  6
Continuous
 62
     7
370
    15
100
AcDbLine
 10
683.4564922538
 20
451.0965393535
 30
0.0
 11
683.4564922538
 21
416.0965280287
 31
0.0
  0
LINE
  5
D2
330
1F
100
AcDbEntity
  8
0
  6
Continuous
 62
     7
370
    15
100
AcDbLine
 10
694.055136868
 20
451.0965393535
 30
0.0
 11
683.4564922538
 21
451.0965393535
 31
0.0
  0
LINE
  5
D3
330
1F
100
AcDbEntity
  8
0
  6
Continuous
 62
     7
370
    15
100
AcDbLine
 10
694.055136868
 20
416.0965280287
 30
0.0
 11
683.4564922538
 21
416.0965280287
 31
0.0
  0
LINE
  5
D4
330
1F
100
AcDbEntity
  8
0
  6
Continuous
 62
     7
370
    15
100
AcDbLine
 10
691.0551307883
 20
163.0965293996
 30
0.0
 11
686.0551355567
 21
163.0965293996
 31
0.0
  0
LINE
  5
D5
330
1F
100
AcDbEntity
  8
0
  6
Continuous
 62
     7
370
    15
100
AcDbLine
 10
686.0551355567
 20
379.0965350024
 30
0.0
 11
691.0551307883
 21
379.0965350024
 31
0.0
  0
LINE
  5
D6
330
1F
100
AcDbEntity
  8
0
  6
Continuous
 62
     7
370
    15
100
AcDbLine
 10
682.9929767337
 20
91.0965250484
 30
0.0
 11
682.9929767337
 21
126.0965363733
 31
0.0
  0
LINE
  5
D7
330
1F
100
AcDbEntity
  8
0
  6
Continuous
 62
     7
370
    15
100
AcDbLine
 10
682.9929767337
 20
126.0965363733
 30
0.0
 11
683.4564922538
 21
126.0965363733
 31
0.0
  0
LINE
  5
D8
330
1F
100
AcDbEntity
  8
0
  6
Continuous
 62
     7
370
    15
100
AcDbLine
 10
683.4564922538
 20
91.0965250484
 30
0.0
 11
682.9929767337
 21
91.0965250484
 31
0.0
  0
LINE
  5
D9
330
1F
100
AcDbEntity
  8
0
  6
Continuous
 62
     7
370
    15
100
AcDbLine
 10
682.9929767337
 20
416.0965280287
 30
0.0
 11
682.9929767337
 21
451.0965393535
 31
0.0
  0
LINE
  5
DA
330
1F
100
AcDbEntity
  8
0
  6
Continuous
 62
     7
370
    15
100
AcDbLine
 10
682.9929767337
 20
451.0965393535
 30
0.0
 11
683.4564922538
 21
451.0965393535
 31
0.0
  0
LINE
  5
DB
330
1F
100
AcDbEntity
  8
0
  6
Continuous
 62
     7
370
    15
100
AcDbLine
 10
683.4564922538
 20
416.0965280287
 30
0.0
 11
682.9929767337
 21
416.0965280287
 31
0.0
  0
LINE
  5
DC
330
1F
100
AcDbEntity
  8
0
  6
Continuous
 62
     7
370
    15
100
AcDbLine
 10
682.9929767337
 20
451.0965393535
 30
0.0
 11
682.5551359143
 21
451.0965393535
 31
0.0
  0
LINE
  5
DD
330
1F
100
AcDbEntity
  8
0
  6
Continuous
 62
     7
370
    15
100
AcDbLine
 10
682.9929767337
 20
416.0965280287
 30
0.0
 11
682.5551359143
 21
416.0965280287
 31
0.0
  0
LINE
  5
DE
330
1F
100
AcDbEntity
  8
0
  6
Continuous
 62
     7
370
    15
100
AcDbLine
 10
682.9929767337
 20
126.0965363733
 30
0.0
 11
682.5551359143
 21
126.0965363733
 31
0.0
  0
LINE
  5
DF
330
1F
100
AcDbEntity
  8
0
  6
Continuous
 62
     7
370
    15
100
AcDbLine
 10
682.9929767337
 20
91.0965250484
 30
0.0
 11
682.5551359143
 21
91.0965250484
 31
0.0
  0
LINE
  5
E0
330
1F
100
AcDbEntity
  8
0
  6
Continuous
 62
     7
370
    15
100
AcDbLine
 10
377.3551253762
 20
277.8465323761
 30
0.0
 11
374.255132505
 21
277.8465323761
 31
0.0
  0
LINE
  5
E1
330
1F
100
AcDbEntity
  8
0
  6
Continuous
 62
     7
370
    15
100
AcDbLine
 10
377.3551253762
 20
264.3465320259
 30
0.0
 11
374.255132505
 21
264.3465320259
 31
0.0
  0
LINE
  5
E2
330
1F
100
AcDbEntity
  8
0
  6
Continuous
 62
     7
370
    15
100
AcDbLine
 10
377.3551253762
 20
264.3465320259
 30
0.0
 11
378.9146362033
 21
264.3465320259
 31
0.0
  0
LINE
  5
E3
330
1F
100
AcDbEntity
  8
0
  6
Continuous
 62
     7
370
    15
100
AcDbLine
 10
377.3551253762
 20
277.8465323761
 30
0.0
 11
378.9152024474
 21
277.8465323761
 31
0.0
  0
LINE
  5
E4
330
1F
100
AcDbEntity
  8
0
  6
Continuous
 62
     8
370
    15
100
AcDbLine
 10
377.3551253762
 20
277.8465323761
 30
0.0
 11
377.3551253762
 21
277.5965323351
 31
0.0
  0
LINE
  5
E5
330
1F
100
AcDbEntity
  8
0
  6
Continuous
 62
     8
370
    15
100
AcDbLine
 10
377.3551253762
 20
264.5965320669
 30
0.0
 11
377.3551253762
 21
264.3465320259
 31
0.0
  0
LINE
  5
E6
330
1F
100
AcDbEntity
  8
0
  6
Continuous
 62
     7
370
    15
100
AcDbLine
 10
197.128306048
 20
277.5965323351
 30
0.0
 11
197.128306048
 21
264.5965320669
 31
0.0
  0
LINE
  5
E7
330
1F
100
AcDbEntity
  8
0
  6
Continuous
 62
     7
370
    15
100
AcDbLine
 10
187.3383101989
 20
278.2965320773
 30
0.0
 11
187.3383101989
 21
279.096532581
 31
0.0
  0
LINE
  5
E8
330
1F
100
AcDbEntity
  8
0
  6
Continuous
 62
     7
370
    15
100
AcDbLine
 10
187.3383101989
 20
263.096531821
 30
0.0
 11
187.3383101989
 21
263.8965323247
 31
0.0
  0
ARC
  5
E9
330
1F
100
AcDbEntity
  8
0
  6
Continuous
 62
     7
370
    15
100
AcDbCircle
 10
184.6083085633
 20
276.2893893439
 30
0.0
 40
3.807142857143142
100
AcDbArc
 50
54.6997515601
 51
125.3002484399
  0
LINE
  5
EA
330
1F
100
AcDbEntity
  8
0
  6
Continuous
 62
     7
370
    15
100
AcDbLine
 10
182.4083057214
 20
279.3965320714
 30
0.0
 11
182.4083057214
 21
279.096532581
 31
0.0
  0
LINE
  5
EB
330
1F
100
AcDbEntity
  8
0
  6
Continuous
 62
     7
370
    15
100
AcDbLine
 10
186.8083056975
 20
279.096532581
 30
0.0
 11
186.8083056975
 21
279.3965320714
 31
0.0
  0
LINE
  5
EC
330
1F
100
AcDbEntity
  8
0
  6
Continuous
 62
     7
370
    15
100
AcDbLine
 10
182.5083074142
 20
262.6965325005
 30
0.0
 11
182.5083074142
 21
262.2965322487
 31
0.0
  0
LINE
  5
ED
330
1F
100
AcDbEntity
  8
0
  6
Continuous
 62
     7
370
    15
100
AcDbLine
 10
186.7083114554
 20
262.2965322487
 30
0.0
 11
186.7083114554
 21
262.6965325005
 31
0.0
  0
ARC
  5
EE
330
1F
100
AcDbEntity
  8
0
  6
Continuous
 62
     7
370
    15
100
AcDbCircle
 10
182.7083085633
 20
263.096532201
 30
0.0
 40
0.4000000000007731
100
AcDbArc
 50
270.0
 51
0.0
  0
ARC
  5
EF
330
1F
100
AcDbEntity
  8
0
  6
Continuous
 62
     7
370
    15
100
AcDbCircle
 10
186.5083085633
 20
263.096532201
 30
0.0
 40
0.4000000000007731
100
AcDbArc
 50
180.0
 51
270.0
  0
LINE
  5
F0
330
1F
100
AcDbEntity
  8
0
  6
Continuous
 62
     7
370
    15
100
AcDbLine
 10
183.1083101202
 20
278.2965320773
 30
0.0
 11
183.1083101202
 21
277.8465323761
 31
0.0
  0
LINE
  5
F1
330
1F
100
AcDbEntity
  8
0
  6
Continuous
 62
     7
370
    15
100
AcDbLine
 10
183.1083101202
 20
276.8465322122
 30
0.0
 11
183.1083101202
 21
276.3578276761
 31
0.0
  0
LINE
  5
F2
330
1F
100
AcDbEntity
  8
0
  6
Continuous
 62
     7
370
    15
100
AcDbLine
 10
183.1083101202
 20
275.5617131158
 30
0.0
 11
183.1083101202
 21
275.4060160048
 31
0.0
  0
LINE
  5
F3
330
1F
100
AcDbEntity
  8
0
  6
Continuous
 62
     7
370
    15
100
AcDbLine
 10
183.1083101202
 20
266.1069053836
 30
0.0
 11
183.1083101202
 21
265.3465321898
 31
0.0
  0
LINE
  5
F4
330
1F
100
AcDbEntity
  8
0
  6
Continuous
 62
     7
370
    15
100
AcDbLine
 10
183.1083101202
 20
264.3465320259
 30
0.0
 11
183.1083101202
 21
263.8965323247
 31
0.0
  0
LINE
  5
F5
330
1F
100
AcDbEntity
  8
0
  6
Continuous
 62
     7
370
    15
100
AcDbLine
 10
186.1083087493
 20
263.8965323247
 30
0.0
 11
186.1083087493
 21
264.3465320259
 31
0.0
  0
LINE
  5
F6
330
1F
100
AcDbEntity
  8
0
  6
Continuous
 62
     7
370
    15
100
AcDbLine
 10
186.1083087493
 20
265.3465321898
 30
0.0
 11
186.1083087493
 21
265.8336744323
 31
0.0
  0
LINE
  5
F7
330
1F
100
AcDbEntity
  8
0
  6
Continuous
 62
     7
370
    15
100
AcDbLine
 10
186.1083087493
 20
275.1415916398
 30
0.0
 11
186.1083087493
 21
275.329530207
 31
0.0
  0
LINE
  5
F8
330
1F
100
AcDbEntity
  8
0
  6
Continuous
 62
     7
370
    15
100
AcDbLine
 10
186.1083087493
 20
276.0846092976
 30
0.0
 11
186.1083087493
 21
276.8465322122
 31
0.0
  0
LINE
  5
F9
330
1F
100
AcDbEntity
  8
0
  6
Continuous
 62
     7
370
    15
100
AcDbLine
 10
186.1083087493
 20
277.8465323761
 30
0.0
 11
186.1083087493
 21
278.2965320773
 31
0.0
  0
SPLINE
  5
FA
330
1F
100
AcDbEntity
  8
0
  6
Continuous
 62
     7
370
    15
100
AcDbSpline
210
0.0
220
0.0
230
1.0
 70
     8
 71
     3
 72
    15
 73
    11
 74
     0
 42
0.00000001
 43
0.00000001
 40
0.0
 40
0.0
 40
0.0
 40
0.0
 40
0.1356028663338301
 40
0.2953315886943306
 40
0.4038095484465317
 40
0.5319635813589845
 40
0.6738457581954921
 40
0.8261073253668793
 40
0.9126171788294358
 40
1.0
 40
1.0
 40
1.0
 40
1.0
 10
186.1083087493069
 20
265.6625774368328
 30
0.0
 10
186.1526902226624
 20
265.6552543235998
 30
0.0
 10
186.249349322791
 20
265.6393052015512
 30
0.0
 10
186.4562004523087
 20
265.686971201827
 30
0.0
 10
186.6494608275345
 20
265.7747020981236
 30
0.0
 10
186.7960493241563
 20
265.8943616407728
 30
0.0
 10
186.8947519636832
 20
266.0452512409978
 30
0.0
 10
186.9244193295621
 20
266.1671052432667
 30
0.0
 10
186.9032303399347
 20
266.2963478513441
 30
0.0
 10
186.8569771986668
 20
266.3630258850141
 30
0.0
 10
186.8337345291264
 20
266.3965322687906
 30
0.0
  0
SPLINE
  5
FB
330
1F
100
AcDbEntity
  8
0
  6
Continuous
 62
     7
370
    15
100
AcDbSpline
210
0.0
220
0.0
230
1.0
 70
     8
 71
     3
 72
    20
 73
    16
 74
     0
 42
0.00000001
 43
0.00000001
 40
0.0
 40
0.0
 40
0.0
 40
0.0
 40
0.0607086214852914
 40
0.2265341895458336
 40
0.390803581223065
 40
0.4705950241619049
 40
0.5476206230061507
 40
0.6228561628181747
 40
0.7003374888932409
 40
0.7786476390016884
 40
0.8566581059630805
 40
0.9331014492745098
 40
0.9703731458204543
 40
0.9892352107449414
 40
1.0
 40
1.0
 40
1.0
 40
1.0
 10
182.3721108008511
 20
266.3965322687906
 30
0.0
 10
182.4183853617947
 20
266.343198871299
 30
0.0
 10
182.5910588619251
 20
266.1441853262556
 30
0.0
 10
183.0080322752415
 20
266.1262585732419
 30
0.0
 10
183.5729867285652
 20
266.0512356104464
 30
0.0
 10
184.0925994458169
 20
266.0082934276858
 30
0.0
 10
184.4864905136067
 20
265.9777428662157
 30
0.0
 10
184.8794009520192
 20
265.9500593798169
 30
0.0
 10
185.2605629594464
 20
265.9187528754235
 30
0.0
 10
185.6162892020331
 20
265.8862799339674
 30
0.0
 10
185.9189156028973
 20
265.8554539875988
 30
0.0
 10
186.1114278385241
 20
265.8325519375874
 30
0.0
 10
186.1995361708913
 20
265.82452411816
 30
0.0
 10
186.2449735224815
 20
265.81672968488
 30
0.0
 10
186.2444170000078
 20
265.8206885332719
 30
0.0
 10
186.2442147899754
 20
265.8221269637031
 30
0.0
  0
SPLINE
  5
FC
330
1F
100
AcDbEntity
  8
0
  6
Continuous
 62
     7
370
    15
100
AcDbSpline
210
0.0
220
0.0
230
1.0
 70
     8
 71
     3
 72
    18
 73
    14
 74
     0
 42
0.00000001
 43
0.00000001
 40
0.0
 40
0.0
 40
0.0
 40
0.0
 40
0.0057536129122021
 40
0.1156389023353307
 40
0.2383936358241066
 40
0.3593077623635511
 40
0.4757041881704016
 40
0.5872127586402517
 40
0.7047314396689262
 40
0.8265009696926193
 40
0.8891454136453518
 40
0.9517929294910257
 40
1.0
 40
1.0
 40
1.0
 40
1.0
 10
186.6149258781559
 20
275.043356200276
 30
0.0
 10
186.6102787188927
 20
275.0463096771677
 30
0.0
 10
186.5168778585338
 20
275.1056700879277
 30
0.0
 10
186.2945065858705
 20
275.1118525783158
 30
0.0
 10
185.9031392636541
 20
275.1710498434423
 30
0.0
 10
185.391247783338
 20
275.2165965238243
 30
0.0
 10
184.8402231459104
 20
275.2627481532327
 30
0.0
 10
184.2781066417519
 20
275.3016443066614
 30
0.0
 10
183.7438271374858
 20
275.3463743860166
 30
0.0
 10
183.3461924131457
 20
275.3874447998671
 30
0.0
 10
183.1314637012317
 20
275.4085661632158
 30
0.0
 10
183.0353966070342
 20
275.4108551992916
 30
0.0
 10
183.0199607268905
 20
275.3947800976145
 30
0.0
 10
183.0132481623776
 20
275.3877895563525
 30
0.0
  0
SPLINE
  5
FD
330
1F
100
AcDbEntity
  8
0
  6
Continuous
 62
     7
370
    15
100
AcDbSpline
210
0.0
220
0.0
230
1.0
 70
     8
 71
     3
 72
    12
 73
     8
 74
     0
 42
0.00000001
 43
0.00000001
 40
0.0
 40
0.0
 40
0.0
 40
0.0
 40
0.2236729820054967
 40
0.4523097742282867
 40
0.6822372678484837
 40
0.9102273613192214
 40
1.0
 40
1.0
 40
1.0
 40
1.0
 10
182.3140111733563
 20
276.1983829229754
 30
0.0
 10
182.3012757543339
 20
276.1558349953264
 30
0.0
 10
182.2755222884881
 20
276.0697949051184
 30
0.0
 10
182.3966452934735
 20
275.9781798532346
 30
0.0
 10
182.6283265961367
 20
275.881874490235
 30
0.0
 10
182.8731830361536
 20
275.819383431894
 30
0.0
 10
183.0565158950443
 20
275.8246035748255
 30
0.0
 10
183.1083101202137
 20
275.8260783418697
 30
0.0
  0
SPLINE
  5
FE
330
1F
100
AcDbEntity
  8
0
  6
Continuous
 62
     7
370
    15
100
AcDbSpline
210
0.0
220
0.0
230
1.0
 70
     8
 71
     3
 72
    19
 73
    15
 74
     0
 42
0.00000001
 43
0.00000001
 40
0.0
 40
0.0
 40
0.0
 40
0.0
 40
0.0979033736757284
 40
0.1753767752232956
 40
0.2884822032961697
 40
0.3734525700840743
 40
0.4570022720946865
 40
0.6168867031555729
 40
0.6796659019373148
 40
0.7634255342528317
 40
0.8137555855017751
 40
0.8702971455237448
 40
0.9323987944767276
 40
1.0
 40
1.0
 40
1.0
 40
1.0
 10
182.4902472067959
 20
275.7032522611004
 30
0.0
 10
182.5407543110945
 20
275.6768752666063
 30
0.0
 10
182.6312289571175
 20
275.6296254930717
 30
0.0
 10
183.0058723770942
 20
275.5689768609227
 30
0.0
 10
183.4923847707959
 20
275.5150900803205
 30
0.0
 10
184.0837126936848
 20
275.4618565742093
 30
0.0
 10
184.8378151994949
 20
275.410306861213
 30
0.0
 10
185.4789059214824
 20
275.3433629858481
 30
0.0
 10
186.1281820275565
 20
275.3078432169677
 30
0.0
 10
186.5065124164752
 20
275.3860306414933
 30
0.0
 10
186.7583656175843
 20
275.49422754445
 30
0.0
 10
186.8919625005054
 20
275.5825699806615
 30
0.0
 10
186.9537194762604
 20
275.6564105786256
 30
0.0
 10
186.8822841144576
 20
275.7369259141617
 30
0.0
 10
186.8450519610531
 20
275.7788905553204
 30
0.0
  0
SPLINE
  5
FF
330
1F
100
AcDbEntity
  8
0
  6
Continuous
 62
     7
370
    15
100
AcDbSpline
210
0.0
220
0.0
230
1.0
 70
     8
 71
     3
 72
    25
 73
    21
 74
     0
 42
0.00000001
 43
0.00000001
 40
0.0
 40
0.0
 40
0.0
 40
0.0
 40
0.017626891199656
 40
0.0344971271163479
 40
0.0503149875215914
 40
0.0649736946624755
 40
0.0909443827718167
 40
0.1134380192291229
 40
0.1538408705044994
 40
0.191234728647758
 40
0.2995718685966565
 40
0.3999645798574709
 40
0.5012967436741349
 40
0.5949071580053961
 40
0.6784893124529331
 40
0.7336313413615942
 40
0.8075206955948011
 40
0.8952856599339531
 40
0.9453107714913105
 40
1.0
 40
1.0
 40
1.0
 40
1.0
 10
186.4877295662052
 20
275.1533086090964
 30
0.0
 10
186.527440615115
 20
275.1577026087763
 30
0.0
 10
186.6051580688987
 20
275.1663019904704
 30
0.0
 10
186.7070326432134
 20
275.2123104714228
 30
0.0
 10
186.788054356764
 20
275.2712641509755
 30
0.0
 10
186.8642531928087
 20
275.3548392704632
 30
0.0
 10
186.9173067384851
 20
275.4584919813954
 30
0.0
 10
186.9414669595554
 20
275.5908250965441
 30
0.0
 10
186.9185642201433
 20
275.7226845218442
 30
0.0
 10
186.7473478081737
 20
275.9679037041724
 30
0.0
 10
186.4045408336171
 20
276.0549807540621
 30
0.0
 10
185.9094328002748
 20
276.1135371499144
 30
0.0
 10
185.2962182559189
 20
276.171894037366
 30
0.0
 10
184.6467504448011
 20
276.2215166861828
 30
0.0
 10
184.1070401274546
 20
276.2609975291181
 30
0.0
 10
183.6610481819616
 20
276.3001738296085
 30
0.0
 10
183.2723287237199
 20
276.3384027333787
 30
0.0
 10
183.0121688712762
 20
276.366244323766
 30
0.0
 10
182.8817440956911
 20
276.3887381505375
 30
0.0
 10
182.8730770042537
 20
276.4012014791538
 30
0.0
 10
182.8685504366047
 20
276.4077107101363
 30
0.0
  0
SPLINE
  5
100
330
1F
100
AcDbEntity
  8
0
  6
Continuous
 62
     7
370
    15
100
AcDbSpline
210
0.0
220
0.0
230
1.0
 70
     8
 71
     3
 72
    12
 73
     8
 74
     0
 42
0.00000001
 43
0.00000001
 40
0.0
 40
0.0
 40
0.0
 40
0.0
 40
0.175647670400461
 40
0.5723083889404248
 40
0.758616423787197
 40
0.9207513991597377
 40
1.0
 40
1.0
 40
1.0
 40
1.0
 10
182.9568770695813
 20
275.5892229877097
 30
0.0
 10
182.8913134265156
 20
275.5800519595252
 30
0.0
 10
182.6776890564885
 20
275.5501702289382
 30
0.0
 10
182.4617720062467
 20
275.4762292319662
 30
0.0
 10
182.3006207268532
 20
275.2613067891659
 30
0.0
 10
182.2694070789114
 20
275.1010849050022
 30
0.0
 10
182.3003840574164
 20
275.0224217709472
 30
0.0
 10
182.3105541039593
 20
274.9965958907885
 30
0.0
  0
LINE
  5
101
330
1F
100
AcDbEntity
  8
0
  6
Continuous
 62
     7
370
    15
100
AcDbLine
 10
182.4680668284
 20
266.2987918272
 30
0.0
 11
181.3496080209
 21
266.2987918272
 31
0.0
  0
LINE
  5
102
330
1F
100
AcDbEntity
  8
0
  6
Continuous
 62
     7
370
    15
100
AcDbLine
 10
181.3496080209
 20
265.4987922549
 30
0.0
 11
183.1083101202
 21
265.4987922549
 31
0.0
  0
LINE
  5
103
330
1F
100
AcDbEntity
  8
0
  6
Continuous
 62
     7
370
    15
100
AcDbLine
 10
179.939317422
 20
279.096532581
 30
0.0
 11
179.939317422
 21
279.1500026039
 31
0.0
  0
LINE
  5
104
330
1F
100
AcDbEntity
  8
0
  6
Continuous
 62
     7
370
    15
100
AcDbLine
 10
176.9393187929
 20
279.1500026039
 30
0.0
 11
176.9393187929
 21
279.096532581
 31
0.0
  0
SPLINE
  5
105
330
1F
100
AcDbEntity
  8
0
  6
Continuous
 62
     7
370
    15
100
AcDbSpline
210
0.0
220
0.0
230
1.0
 70
     8
 71
     3
 72
    15
 73
    11
 74
     0
 42
0.00000001
 43
0.00000001
 40
0.0
 40
0.0
 40
0.0
 40
0.0
 40
0.1077552675361844
 40
0.2352510372338785
 40
0.3627912513738016
 40
0.4902571009683765
 40
0.617663018955488
 40
0.7450977887964529
 40
0.8724973178809208
 40
1.0
 40
1.0
 40
1.0
 40
1.0
 10
176.9553673435337
 20
263.0965318210107
 30
0.0
 10
176.971910353572
 20
262.7840111128539
 30
0.0
 10
177.0080270127337
 20
262.1017166651486
 30
0.0
 10
177.3442241750573
 20
261.0925624148892
 30
0.0
 10
177.9023120568499
 20
260.1290841425923
 30
0.0
 10
178.6571421442637
 20
259.3081651894537
 30
0.0
 10
179.5722976887254
 20
258.6728866345046
 30
0.0
 10
180.5995563830539
 20
258.2527308087317
 30
0.0
 10
181.6955355744527
 20
258.0389225802359
 30
0.0
 10
182.4312923713584
 20
258.104453127581
 30
0.0
 10
182.7993196416981
 20
258.1372316606027
 30
0.0
  0
SPLINE
  5
106
330
1F
100
AcDbEntity
  8
0
  6
Continuous
 62
     7
370
    15
100
AcDbSpline
210
0.0
220
0.0
230
1.0
 70
     8
 71
     3
 72
    15
 73
    11
 74
     0
 42
0.00000001
 43
0.00000001
 40
0.0
 40
0.0
 40
0.0
 40
0.0
 40
0.1316497309041642
 40
0.2633111631157699
 40
0.3951882693829391
 40
0.5266681356379989
 40
0.657545980020369
 40
0.7882122681223777
 40
0.918459392610764
 40
0.9999999999999999
 40
0.9999999999999999
 40
0.9999999999999999
 40
0.9999999999999999
 10
182.3016283084042
 20
261.0949165798408
 30
0.0
 10
182.1494468354898
 20
261.0831024072242
 30
0.0
 10
181.8450703634487
 20
261.0594730119224
 30
0.0
 10
181.3942148718537
 20
261.1609527308825
 30
0.0
 10
180.9751846895801
 20
261.3478033150886
 30
0.0
 10
180.604791610227
 20
261.6204003651516
 30
0.0
 10
180.3025302306035
 20
261.9663107326641
 30
0.0
 10
180.0833729154196
 20
262.3680190279614
 30
0.0
 10
179.966000001773
 20
262.7543313425775
 30
0.0
 10
179.9558260042399
 20
263.0014055371676
 30
0.0
 10
179.95190890323
 20
263.0965318210107
 30
0.0
  0
SPLINE
  5
107
330
1F
100
AcDbEntity
  8
0
  6
Continuous
 62
     7
370
    15
100
AcDbSpline
210
0.0
220
0.0
230
1.0
 70
     8
 71
     3
 72
    15
 73
    11
 74
     0
 42
0.00000001
 43
0.00000001
 40
0.0
 40
0.0
 40
0.0
 40
0.0
 40
0.1249271199019881
 40
0.2499164786626197
 40
0.3749670180552142
 40
0.4999570436912684
 40
0.624920505096255
 40
0.7499166867458813
 40
0.8748739282905801
 40
1.0
 40
1.0
 40
1.0
 40
1.0
 10
182.9701987076886
 20
284.0270530111772
 30
0.0
 10
182.6038220482837
 20
284.0703848677476
 30
0.0
 10
181.8708862001309
 20
284.1570701688773
 30
0.0
 10
180.7668601225443
 20
283.9918804272307
 30
0.0
 10
179.7260608304202
 20
283.6029496276863
 30
0.0
 10
178.7908718536034
 20
282.9979351312505
 30
0.0
 10
178.0102283448689
 20
282.2017412843073
 30
0.0
 10
177.422266017812
 20
281.2573780188868
 30
0.0
 10
177.0264296875247
 20
280.2089354728169
 30
0.0
 10
176.9683688233398
 20
279.4698132762618
 30
0.0
 10
176.939318792928
 20
279.100002688883
 30
0.0
  0
SPLINE
  5
108
330
1F
100
AcDbEntity
  8
0
  6
Continuous
 62
     7
370
    15
100
AcDbSpline
210
0.0
220
0.0
230
1.0
 70
     8
 71
     3
 72
    15
 73
    11
 74
     0
 42
0.00000001
 43
0.00000001
 40
0.0
 40
0.0
 40
0.0
 40
0.0
 40
0.1242527101213646
 40
0.2486335825946776
 40
0.3735414236081396
 40
0.498583312213038
 40
0.6236637605150498
 40
0.7490698541557573
 40
0.8744383731249473
 40
1.0
 40
1.0
 40
1.0
 40
1.0
 10
179.9393174220211
 20
279.100002688883
 30
0.0
 10
179.9528742252225
 20
279.2519591934862
 30
0.0
 10
179.9800018149965
 20
279.5560289405457
 30
0.0
 10
180.1544712072343
 20
279.9833411631723
 30
0.0
 10
180.4078020421738
 20
280.3649852080123
 30
0.0
 10
180.7376262182628
 20
280.6849140000574
 30
0.0
 10
181.1285522478718
 20
280.9254902649465
 30
0.0
 10
181.5612503567549
 20
281.0771140114031
 30
0.0
 10
182.0187821973518
 20
281.1305714986607
 30
0.0
 10
182.3207014282835
 20
281.0898814900291
 30
0.0
 10
182.4717772174961
 20
281.0695208288413
 30
0.0
  0
LINE
  5
109
330
1F
100
AcDbEntity
  8
0
  6
Continuous
 62
     7
370
    15
100
AcDbLine
 10
197.842377143
 20
263.7116689846
 30
0.0
 11
182.3014122416
 21
261.0952509246
 31
0.0
  0
LINE
  5
10A
330
1F
100
AcDbEntity
  8
0
  6
Continuous
 62
     7
370
    15
100
AcDbLine
 10
182.7994686533
 20
258.136883346
 30
0.0
 11
198.3404410053
 21
260.7533018715
 31
0.0
  0
LINE
  5
10B
330
1F
100
AcDbEntity
  8
0
  6
Continuous
 62
     7
370
    15
100
AcDbLine
 10
182.4719932843
 20
281.0690952144
 30
0.0
 11
198.0129656364
 21
278.4526762232
 31
0.0
  0
LINE
  5
10C
330
1F
100
AcDbEntity
  8
0
  6
Continuous
 62
     7
370
    15
100
AcDbLine
 10
198.5110220481
 20
281.4110433362
 30
0.0
 11
182.9700571467
 21
284.0274618618
 31
0.0
  0
SPLINE
  5
10D
330
1F
100
AcDbEntity
  8
0
  6
Continuous
 62
     7
370
    15
100
AcDbSpline
210
0.0
220
0.0
230
1.0
 70
     8
 71
     3
 72
    12
 73
     8
 74
     0
 42
0.00000001
 43
0.00000001
 40
0.0
 40
0.0
 40
0.0
 40
0.0
 40
0.1526138277410233
 40
0.2973906386375711
 40
0.5623707933915906
 40
0.7966024105034107
 40
0.9999999999999999
 40
0.9999999999999999
 40
0.9999999999999999
 40
0.9999999999999999
 10
198.3400908280499
 20
260.7536110706312
 30
0.0
 10
198.5913104239669
 20
260.8063491589337
 30
0.0
 10
199.0808490010008
 20
260.909117132144
 30
0.0
 10
199.9303712765835
 20
261.3383623659975
 30
0.0
 10
200.7423643003853
 20
262.0827547372022
 30
0.0
 10
201.3067997865889
 20
263.1537983109782
 30
0.0
 10
201.3884895242603
 20
263.8887239475749
 30
0.0
 10
201.4264565874226
 20
264.2302964493317
 30
0.0
  0
SPLINE
  5
10E
330
1F
100
AcDbEntity
  8
0
  6
Continuous
 62
     7
370
    15
100
AcDbSpline
210
0.0
220
0.0
230
1.0
 70
     8
 71
     3
 72
    11
 73
     7
 74
     0
 42
0.00000001
 43
0.00000001
 40
0.0
 40
0.0
 40
0.0
 40
0.0
 40
0.200357051305965
 40
0.4328048089701403
 40
0.6990199465929517
 40
1.0
 40
1.0
 40
1.0
 40
1.0
 10
198.4281417895443
 20
264.2302964493317
 30
0.0
 10
198.4149143381866
 20
264.1738699218822
 30
0.0
 10
198.386340826445
 20
264.0519791659819
 30
0.0
 10
198.2704558406951
 20
263.88627891735
 30
0.0
 10
198.0857030456404
 20
263.7473694584772
 30
0.0
 10
197.9280819903015
 20
263.723981476902
 30
0.0
 10
197.8444409538395
 20
263.7115707300288
 30
0.0
  0
SPLINE
  5
10F
330
1F
100
AcDbEntity
  8
0
  6
Continuous
 62
     7
370
    15
100
AcDbSpline
210
0.0
220
0.0
230
1.0
 70
     8
 71
     3
 72
    12
 73
     8
 74
     0
 42
0.00000001
 43
0.00000001
 40
0.0
 40
0.0
 40
0.0
 40
0.0
 40
0.2034065801408748
 40
0.4376406898974082
 40
0.7026158536940192
 40
0.8473899973411095
 40
0.9999999999999999
 40
0.9999999999999999
 40
0.9999999999999999
 40
0.9999999999999999
 10
201.4264565874226
 20
277.7889272808713
 30
0.0
 10
201.4050188359841
 20
278.1319361718723
 30
0.0
 10
201.3588943088281
 20
278.8699390801099
 30
0.0
 10
200.8467884363522
 20
279.9670477939252
 30
0.0
 10
200.0715821775986
 20
280.7498046772803
 30
0.0
 10
199.2437319780032
 20
281.2195326425887
 30
0.0
 10
198.7597430632141
 20
281.3457938629709
 30
0.0
 10
198.5113722253926
 20
281.4105879194719
 30
0.0
  0
SPLINE
  5
110
330
1F
100
AcDbEntity
  8
0
  6
Continuous
 62
     7
370
    15
100
AcDbSpline
210
0.0
220
0.0
230
1.0
 70
     8
 71
     3
 72
    12
 73
     8
 74
     0
 42
0.00000001
 43
0.00000001
 40
0.0
 40
0.0
 40
0.0
 40
0.0
 40
0.155553607216955
 40
0.3022025601964606
 40
0.5679660049298992
 40
0.7999450310488447
 40
1.0
 40
1.0
 40
1.0
 40
1.0
 10
198.0110433865673
 20
278.4535945072454
 30
0.0
 10
198.0515877214915
 20
278.4378449975475
 30
0.0
 10
198.130355434017
 20
278.4072475576186
 30
0.0
 10
198.2599849919505
 20
278.3122030496077
 30
0.0
 10
198.3744166832124
 20
278.1660305778027
 30
0.0
 10
198.438561730602
 20
277.9717769855448
 30
0.0
 10
198.4314396813023
 20
277.8467988686909
 30
0.0
 10
198.4281417895444
 20
277.7889272808713
 30
0.0
  0
LINE
  5
111
330
1F
100
AcDbEntity
  8
0
  6
Continuous
 62
     7
370
    15
100
AcDbLine
 10
198.4272998739
 20
277.8389271959
 30
0.0
 11
198.4272998739
 21
277.5965323351
 31
0.0
  0
LINE
  5
112
330
1F
100
AcDbEntity
  8
0
  6
Continuous
 62
     7
370
    15
100
AcDbLine
 10
198.4272998739
 20
264.5965320669
 30
0.0
 11
198.4272998739
 21
264.1802965343
 31
0.0
  0
LINE
  5
113
330
1F
100
AcDbEntity
  8
0
  6
Continuous
 62
     7
370
    15
100
AcDbLine
 10
201.427298503
 20
264.1802965343
 30
0.0
 11
201.427298503
 21
264.5992766745
 31
0.0
  0
LINE
  5
114
330
1F
100
AcDbEntity
  8
0
  6
Continuous
 62
     7
370
    15
100
AcDbLine
 10
201.427298503
 20
277.5937877275
 30
0.0
 11
201.427298503
 21
277.8389271959
 31
0.0
  0
LINE
  5
115
330
1F
100
AcDbEntity
  8
0
  6
Continuous
 62
     7
370
    15
100
AcDbLine
 10
187.7265823055
 20
276.6965320013
 30
0.0
 11
186.1083087493
 21
276.6965320013
 31
0.0
  0
LINE
  5
116
330
1F
100
AcDbEntity
  8
0
  6
Continuous
 62
     7
370
    15
100
AcDbLine
 10
186.7352304031
 20
275.896532429
 30
0.0
 11
187.7265823055
 21
275.896532429
 31
0.0
  0
LINE
  5
117
330
1F
100
AcDbEntity
  8
0
  6
Continuous
 62
     7
370
    15
100
AcDbLine
 10
188.0648088623
 20
277.9646711103
 30
0.0
 11
187.7982792426
 21
276.7564239591
 31
0.0
  0
LINE
  5
118
330
1F
100
AcDbEntity
  8
0
  6
Continuous
 62
     7
370
    15
100
AcDbLine
 10
188.5664341022
 20
276.524873884
 30
0.0
 11
188.8460245896
 21
277.7923433721
 31
0.0
  0
SPLINE
  5
119
330
1F
100
AcDbEntity
  8
0
  6
Continuous
 62
     7
370
    15
100
AcDbSpline
210
0.0
220
0.0
230
1.0
 70
     8
 71
     3
 72
    11
 73
     7
 74
     0
 42
0.00000001
 43
0.00000001
 40
0.0
 40
0.0
 40
0.0
 40
0.0
 40
0.2541309399275824
 40
0.5022690019548702
 40
0.7495126202113759
 40
1.0
 40
1.0
 40
1.0
 40
1.0
 10
187.7265823055394
 20
275.8965324289781
 30
0.0
 10
187.8266710499744
 20
275.9067785404563
 30
0.0
 10
188.0244882610099
 20
275.927029141141
 30
0.0
 10
188.2826335872081
 20
276.0810616289108
 30
0.0
 10
188.4860825730436
 20
276.3001357616079
 30
0.0
 10
188.547821054393
 20
276.487185545468
 30
0.0
 10
188.5788914729245
 20
276.5813199482542
 30
0.0
  0
LINE
  5
11A
330
1F
100
AcDbEntity
  8
0
  6
Continuous
 62
     7
370
    15
100
AcDbLine
 10
197.7069181372
 20
277.5965323351
 30
0.0
 11
197.7069181372
 21
264.5965320669
 31
0.0
  0
LINE
  5
11B
330
1F
100
AcDbEntity
  8
0
  6
Continuous
 62
     7
370
    15
100
AcDbLine
 10
197.7069181372
 20
277.5965323351
 30
0.0
 11
200.4258957673
 21
277.5965323351
 31
0.0
  0
LWPOLYLINE
  5
11C
330
1F
100
AcDbEntity
  8
0
  6
Continuous
 62
     7
370
    15
100
AcDbPolyline
 90
        9
 70
   128
 43
0.0
 10
201.1564102937
 20
276.3965320453
 10
201.1423733998
 20
276.6306404635
 10
201.1008066107
 20
276.8557523057
 10
201.0332968999
 20
277.0632165163
 10
200.9424519707
 20
277.2450605087
 10
200.8317512442
 20
277.394295638
 10
200.7054564525
 20
277.5051877513
 10
200.5684179236
 20
277.5734746508
 10
200.4258957673
 20
277.5965323351
  0
LINE
  5
11D
330
1F
100
AcDbEntity
  8
0
  6
Continuous
 62
     7
370
    15
100
AcDbLine
 10
201.1564102937
 20
276.3965320453
 30
0.0
 11
201.1564102937
 21
265.7965323567
 31
0.0
  0
LWPOLYLINE
  5
11E
330
1F
100
AcDbEntity
  8
0
  6
Continuous
 62
     7
370
    15
100
AcDbPolyline
 90
        9
 70
   128
 43
0.0
 10
200.4258957673
 20
264.5965320669
 10
200.5684179236
 20
264.6195897512
 10
200.7054564525
 20
264.6878766507
 10
200.8317512442
 20
264.798768764
 10
200.9424519707
 20
264.9480038933
 10
201.0332968999
 20
265.1298478856
 10
201.1008066107
 20
265.3373120963
 10
201.1423733998
 20
265.5624239385
 10
201.1564102937
 20
265.7965323567
  0
LINE
  5
11F
330
1F
100
AcDbEntity
  8
0
  6
Continuous
 62
     7
370
    15
100
AcDbLine
 10
200.4258957673
 20
264.5965320669
 30
0.0
 11
197.7069181372
 21
264.5965320669
 31
0.0
  0
LINE
  5
120
330
1F
100
AcDbEntity
  8
0
  6
Continuous
 62
     7
370
    15
100
AcDbLine
 10
201.3779235054
 20
264.5965320669
 30
0.0
 11
200.4258957673
 21
264.5965320669
 31
0.0
  0
LINE
  5
121
330
1F
100
AcDbEntity
  8
0
  6
Continuous
 62
     7
370
    15
100
AcDbLine
 10
201.1564102937
 20
265.7965323567
 30
0.0
 11
202.1084380318
 21
265.7965323567
 31
0.0
  0
LWPOLYLINE
  5
122
330
1F
100
AcDbEntity
  8
0
  6
Continuous
 62
     7
370
    15
100
AcDbPolyline
 90
        9
 70
   128
 43
0.0
 10
202.1084380318
 20
265.7965323567
 10
202.0944011379
 20
265.5624239385
 10
202.0528268982
 20
265.3373120963
 10
201.985324638
 20
265.1298478856
 10
201.8944722582
 20
264.9480038933
 10
201.7837715317
 20
264.798768764
 10
201.65747674
 20
264.6878766507
 10
201.5204382111
 20
264.6195897512
 10
201.3779235054
 20
264.5965320669
  0
LINE
  5
123
330
1F
100
AcDbEntity
  8
0
  6
Continuous
 62
     7
370
    15
100
AcDbLine
 10
202.1084380318
 20
276.3965320453
 30
0.0
 11
201.1564102937
 21
276.3965320453
 31
0.0
  0
LINE
  5
124
330
1F
100
AcDbEntity
  8
0
  6
Continuous
 62
     7
370
    15
100
AcDbLine
 10
202.1084380318
 20
276.3965320453
 30
0.0
 11
202.1084380318
 21
265.7965323567
 31
0.0
  0
LINE
  5
125
330
1F
100
AcDbEntity
  8
0
  6
Continuous
 62
     7
370
    15
100
AcDbLine
 10
200.4258957673
 20
277.5965323351
 30
0.0
 11
201.3779235054
 21
277.5965323351
 31
0.0
  0
LWPOLYLINE
  5
126
330
1F
100
AcDbEntity
  8
0
  6
Continuous
 62
     7
370
    15
100
AcDbPolyline
 90
        9
 70
   128
 43
0.0
 10
201.3779235054
 20
277.5965323351
 10
201.5204382111
 20
277.5734746508
 10
201.65747674
 20
277.5051877513
 10
201.7837715317
 20
277.394295638
 10
201.8944722582
 20
277.2450605087
 10
201.985324638
 20
277.0632165163
 10
202.0528268982
 20
276.8557523057
 10
202.0944011379
 20
276.6306404635
 10
202.1084380318
 20
276.3965320453
  0
LINE
  5
127
330
1F
100
AcDbEntity
  8
0
  6
Continuous
 62
     7
370
    15
100
AcDbLine
 10
197.128306048
 20
277.5965323351
 30
0.0
 11
197.7069181372
 21
277.5965323351
 31
0.0
  0
LINE
  5
128
330
1F
100
AcDbEntity
  8
0
  6
Continuous
 62
     7
370
    15
100
AcDbLine
 10
197.7069181372
 20
264.5965320669
 30
0.0
 11
197.128306048
 21
264.5965320669
 31
0.0
  0
LINE
  5
129
330
1F
100
AcDbEntity
  8
0
  6
Continuous
 62
     7
370
    15
100
AcDbLine
 10
207.2283056546
 20
276.4965323411
 30
0.0
 11
205.7283100654
 21
276.4965323411
 31
0.0
  0
LINE
  5
12A
330
1F
100
AcDbEntity
  8
0
  6
Continuous
 62
     7
370
    15
100
AcDbLine
 10
205.7283100654
 20
276.4965323411
 30
0.0
 11
205.7283100654
 21
275.6965323031
 31
0.0
  0
LINE
  5
12B
330
1F
100
AcDbEntity
  8
0
  6
Continuous
 62
     7
370
    15
100
AcDbLine
 10
205.7283100654
 20
275.6965323031
 30
0.0
 11
207.2283056546
 21
275.6965323031
 31
0.0
  0
LINE
  5
12C
330
1F
100
AcDbEntity
  8
0
  6
Continuous
 62
     7
370
    15
100
AcDbLine
 10
207.2283056546
 20
275.6965323031
 30
0.0
 11
207.2283056546
 21
274.19653229
 31
0.0
  0
LINE
  5
12D
330
1F
100
AcDbEntity
  8
0
  6
Continuous
 62
     7
370
    15
100
AcDbLine
 10
208.0283117462
 20
274.19653229
 30
0.0
 11
208.0283117462
 21
275.6965323031
 31
0.0
  0
LINE
  5
12E
330
1F
100
AcDbEntity
  8
0
  6
Continuous
 62
     7
370
    15
100
AcDbLine
 10
208.0283117462
 20
275.6965323031
 30
0.0
 11
209.5283073355
 21
275.6965323031
 31
0.0
  0
LINE
  5
12F
330
1F
100
AcDbEntity
  8
0
  6
Continuous
 62
     7
370
    15
100
AcDbLine
 10
209.5283073355
 20
275.6965323031
 30
0.0
 11
209.5283073355
 21
276.4965323411
 31
0.0
  0
LINE
  5
130
330
1F
100
AcDbEntity
  8
0
  6
Continuous
 62
     7
370
    15
100
AcDbLine
 10
209.5283073355
 20
276.4965323411
 30
0.0
 11
208.0283117462
 21
276.4965323411
 31
0.0
  0
LINE
  5
131
330
1F
100
AcDbEntity
  8
0
  6
Continuous
 62
     7
370
    15
100
AcDbLine
 10
208.0283117462
 20
276.4965323411
 30
0.0
 11
208.0283117462
 21
277.9965321213
 31
0.0
  0
LINE
  5
132
330
1F
100
AcDbEntity
  8
0
  6
Continuous
 62
     7
370
    15
100
AcDbLine
 10
208.0283117462
 20
277.9965321213
 30
0.0
 11
207.2283056546
 21
277.9965321213
 31
0.0
  0
LINE
  5
133
330
1F
100
AcDbEntity
  8
0
  6
Continuous
 62
     7
370
    15
100
AcDbLine
 10
207.2283056546
 20
277.9965321213
 30
0.0
 11
207.2283056546
 21
276.4965323411
 31
0.0
  0
LINE
  5
134
330
1F
100
AcDbEntity
  8
0
  6
Continuous
 62
     7
370
    15
100
AcDbLine
 10
207.2283056546
 20
274.19653229
 30
0.0
 11
208.0283117462
 21
274.19653229
 31
0.0
  0
CIRCLE
  5
135
330
1F
100
AcDbEntity
  8
0
  6
Continuous
 62
     7
370
    15
100
AcDbCircle
 10
207.6283085633
 20
276.096532201
 30
0.0
 40
2.999999999999972
  0
LINE
  5
136
330
1F
100
AcDbEntity
  8
0
  6
Continuous
 62
     7
370
    15
100
AcDbLine
 10
207.2283056546
 20
264.1965322807
 30
0.0
 11
208.0283117462
 21
264.1965322807
 31
0.0
  0
LINE
  5
137
330
1F
100
AcDbEntity
  8
0
  6
Continuous
 62
     7
370
    15
100
AcDbLine
 10
208.0283117462
 20
264.1965322807
 30
0.0
 11
208.0283117462
 21
265.6965320609
 31
0.0
  0
LINE
  5
138
330
1F
100
AcDbEntity
  8
0
  6
Continuous
 62
     7
370
    15
100
AcDbLine
 10
208.0283117462
 20
265.6965320609
 30
0.0
 11
209.5283073355
 21
265.6965320609
 31
0.0
  0
LINE
  5
139
330
1F
100
AcDbEntity
  8
0
  6
Continuous
 62
     7
370
    15
100
AcDbLine
 10
209.5283073355
 20
265.6965320609
 30
0.0
 11
209.5283073355
 21
266.4965320989
 31
0.0
  0
LINE
  5
13A
330
1F
100
AcDbEntity
  8
0
  6
Continuous
 62
     7
370
    15
100
AcDbLine
 10
209.5283073355
 20
266.4965320989
 30
0.0
 11
208.0283117462
 21
266.4965320989
 31
0.0
  0
LINE
  5
13B
330
1F
100
AcDbEntity
  8
0
  6
Continuous
 62
     7
370
    15
100
AcDbLine
 10
208.0283117462
 20
266.4965320989
 30
0.0
 11
208.0283117462
 21
267.996532112
 31
0.0
  0
LINE
  5
13C
330
1F
100
AcDbEntity
  8
0
  6
Continuous
 62
     7
370
    15
100
AcDbLine
 10
208.0283117462
 20
267.996532112
 30
0.0
 11
207.2283056546
 21
267.996532112
 31
0.0
  0
LINE
  5
13D
330
1F
100
AcDbEntity
  8
0
  6
Continuous
 62
     7
370
    15
100
AcDbLine
 10
207.2283056546
 20
267.996532112
 30
0.0
 11
207.2283056546
 21
266.4965320989
 31
0.0
  0
LINE
  5
13E
330
1F
100
AcDbEntity
  8
0
  6
Continuous
 62
     7
370
    15
100
AcDbLine
 10
207.2283056546
 20
266.4965320989
 30
0.0
 11
205.7283100654
 21
266.4965320989
 31
0.0
  0
LINE
  5
13F
330
1F
100
AcDbEntity
  8
0
  6
Continuous
 62
     7
370
    15
100
AcDbLine
 10
205.7283100654
 20
266.4965320989
 30
0.0
 11
205.7283100654
 21
265.6965320609
 31
0.0
  0
CIRCLE
  5
140
330
1F
100
AcDbEntity
  8
0
  6
Continuous
 62
     7
370
    15
100
AcDbCircle
 10
207.6283085633
 20
266.096532201
 30
0.0
 40
3.0
  0
LINE
  5
141
330
1F
100
AcDbEntity
  8
0
  6
Continuous
 62
     7
370
    15
100
AcDbLine
 10
205.7283100654
 20
265.6965320609
 30
0.0
 11
207.2283056546
 21
265.6965320609
 31
0.0
  0
LINE
  5
142
330
1F
100
AcDbEntity
  8
0
  6
Continuous
 62
     7
370
    15
100
AcDbLine
 10
207.2283056546
 20
265.6965320609
 30
0.0
 11
207.2283056546
 21
264.1965322807
 31
0.0
  0
LINE
  5
143
330
1F
100
AcDbEntity
  8
0
  6
Continuous
 62
     7
370
    15
100
AcDbLine
 10
206.6105407644
 20
259.9946465023
 30
0.0
 11
201.628307717
 21
264.5965320669
 31
0.0
  0
LINE
  5
144
330
1F
100
AcDbEntity
  8
0
  6
Continuous
 62
     7
370
    15
100
AcDbLine
 10
201.628307717
 20
277.5965323351
 30
0.0
 11
206.6105407644
 21
282.1984178997
 31
0.0
  0
ARC
  5
145
330
1F
100
AcDbEntity
  8
0
  6
Continuous
 62
     7
370
    15
100
AcDbCircle
 10
207.6283085634
 20
281.096532201
 30
0.0
 40
1.500000000000013
100
AcDbArc
 50
43.6028189726
 51
132.7273953127
  0
ARC
  5
146
330
1F
100
AcDbEntity
  8
0
  6
Continuous
 62
     7
370
    15
100
AcDbCircle
 10
197.1283085633
 20
271.096532201
 30
0.0
 40
16.00000000000006
100
AcDbArc
 50
316.3971810272
 51
43.6028189726
  0
ARC
  5
147
330
1F
100
AcDbEntity
  8
0
  6
Continuous
 62
     7
370
    15
100
AcDbCircle
 10
207.6283085633
 20
261.096532201
 30
0.0
 40
1.50000000000003
100
AcDbArc
 50
227.2726046868
 51
316.3971810272
  0
LINE
  5
148
330
1F
100
AcDbEntity
  8
0
  6
Continuous
 62
     7
370
    15
100
AcDbLine
 10
201.427298503
 20
277.5965323351
 30
0.0
 11
201.628307717
 21
277.5965323351
 31
0.0
  0
LINE
  5
149
330
1F
100
AcDbEntity
  8
0
  6
Continuous
 62
     7
370
    15
100
AcDbLine
 10
201.628307717
 20
264.5965320669
 30
0.0
 11
201.427298503
 21
264.5965320669
 31
0.0
  0
LINE
  5
14A
330
1F
100
AcDbEntity
  8
0
  6
Continuous
 62
     7
370
    15
100
AcDbLine
 10
204.628306346
 20
71.0965292208
 30
0.0
 11
209.6283090283
 21
71.0965292208
 31
0.0
  0
LINE
  5
14B
330
1F
100
AcDbEntity
  8
0
  6
Continuous
 62
     7
370
    15
100
AcDbLine
 10
204.628306346
 20
86.0965298168
 30
0.0
 11
204.628306346
 21
71.0965292208
 31
0.0
  0
LINE
  5
14C
330
1F
100
AcDbEntity
  8
0
  6
Continuous
 62
     7
370
    15
100
AcDbLine
 10
204.628306346
 20
86.0965298168
 30
0.0
 11
209.6283090283
 21
86.0965298168
 31
0.0
  0
LINE
  5
14D
330
1F
100
AcDbEntity
  8
0
  6
Continuous
 62
     7
370
    15
100
AcDbLine
 10
209.6283090283
 20
86.0965298168
 30
0.0
 11
209.6283090283
 21
71.0965292208
 31
0.0
  0
LINE
  5
14E
330
1F
100
AcDbEntity
  8
0
  6
Continuous
 62
     7
370
    15
100
AcDbLine
 10
209.6283090283
 20
86.0965298168
 30
0.0
 11
224.6283096243
 21
86.0965298168
 31
0.0
  0
ARC
  5
14F
330
1F
100
AcDbEntity
  8
0
  6
Continuous
 62
     7
370
    15
100
AcDbCircle
 10
209.6283085633
 20
86.096532201
 30
0.0
 40
15.00000000000001
100
AcDbArc
 50
270.0
 51
0.0
  0
LINE
  5
150
330
1F
100
AcDbEntity
  8
0
  6
Continuous
 62
     7
370
    15
100
AcDbLine
 10
209.6283090283
 20
86.0965298168
 30
0.0
 11
209.6283090283
 21
261.1090400867
 31
0.0
  0
LINE
  5
151
330
1F
100
AcDbEntity
  8
0
  6
Continuous
 62
     7
370
    15
100
AcDbLine
 10
204.628306346
 20
86.0965298168
 30
0.0
 11
204.628306346
 21
261.8255549721
 31
0.0
  0
LINE
  5
152
330
1F
100
AcDbEntity
  8
0
  6
Continuous
 62
     7
370
    15
100
AcDbLine
 10
224.6283096243
 20
86.0965298168
 30
0.0
 11
224.6283096243
 21
456.0965345852
 31
0.0
  0
LINE
  5
153
330
1F
100
AcDbEntity
  8
0
  6
Continuous
 62
     7
370
    15
100
AcDbLine
 10
209.6283090283
 20
281.0840243153
 30
0.0
 11
209.6283090283
 21
456.0965345852
 31
0.0
  0
LINE
  5
154
330
1F
100
AcDbEntity
  8
0
  6
Continuous
 62
     7
370
    15
100
AcDbLine
 10
209.6283090283
 20
456.0965345852
 30
0.0
 11
224.6283096243
 21
456.0965345852
 31
0.0
  0
LINE
  5
155
330
1F
100
AcDbEntity
  8
0
  6
Continuous
 62
     7
370
    15
100
AcDbLine
 10
204.628306346
 20
456.0965345852
 30
0.0
 11
209.6283090283
 21
456.0965345852
 31
0.0
  0
LINE
  5
156
330
1F
100
AcDbEntity
  8
0
  6
Continuous
 62
     7
370
    15
100
AcDbLine
 10
204.628306346
 20
280.3675094299
 30
0.0
 11
204.628306346
 21
456.0965345852
 31
0.0
  0
LINE
  5
157
330
1F
100
AcDbEntity
  8
0
  6
Continuous
 62
     7
370
    15
100
AcDbLine
 10
204.628306346
 20
471.0965351812
 30
0.0
 11
209.6283090283
 21
471.0965351812
 31
0.0
  0
LINE
  5
158
330
1F
100
AcDbEntity
  8
0
  6
Continuous
 62
     7
370
    15
100
AcDbLine
 10
209.6283090283
 20
456.0965345852
 30
0.0
 11
209.6283090283
 21
471.0965351812
 31
0.0
  0
LINE
  5
159
330
1F
100
AcDbEntity
  8
0
  6
Continuous
 62
     7
370
    15
100
AcDbLine
 10
204.628306346
 20
456.0965345852
 30
0.0
 11
204.628306346
 21
471.0965351812
 31
0.0
  0
ARC
  5
15A
330
1F
100
AcDbEntity
  8
0
  6
Continuous
 62
     7
370
    15
100
AcDbCircle
 10
209.6283085633
 20
456.096532201
 30
0.0
 40
15.0
100
AcDbArc
 50
0.0
 51
90.0
  0
LINE
  5
15B
330
1F
100
AcDbEntity
  8
0
  6
Continuous
 62
     7
370
    15
100
AcDbLine
 10
187.8392350842
 20
266.3965322688
 30
0.0
 11
187.8392350842
 21
274.9965320952
 31
0.0
  0
LINE
  5
15C
330
1F
100
AcDbEntity
  8
0
  6
Continuous
 62
     7
370
    15
100
AcDbLine
 10
182.3249411751
 20
266.3965322688
 30
0.0
 11
182.3249411751
 21
274.9965320952
 31
0.0
  0
LINE
  5
15D
330
1F
100
AcDbEntity
  8
0
  6
Continuous
 62
     7
370
    15
100
AcDbLine
 10
187.8392350842
 20
274.9965320952
 30
0.0
 11
182.3249411751
 21
274.9965320952
 31
0.0
  0
LINE
  5
15E
330
1F
100
AcDbEntity
  8
0
  6
Continuous
 62
     7
370
    15
100
AcDbLine
 10
187.8392350842
 20
266.3965322688
 30
0.0
 11
182.3249411751
 21
266.3965322688
 31
0.0
  0
LINE
  5
15F
330
1F
100
AcDbEntity
  8
0
  6
Continuous
 62
     7
370
    15
100
AcDbLine
 10
181.2106844951
 20
278.2965320773
 30
0.0
 11
156.3985747267
 21
278.2965320773
 31
0.0
  0
LINE
  5
160
330
1F
100
AcDbEntity
  8
0
  6
Continuous
 62
     7
370
    15
100
AcDbLine
 10
181.2106844951
 20
274.9965320952
 30
0.0
 11
181.2106844951
 21
278.2965320773
 31
0.0
  0
LINE
  5
161
330
1F
100
AcDbEntity
  8
0
  6
Continuous
 62
     7
370
    15
100
AcDbLine
 10
181.2106844951
 20
263.8965323247
 30
0.0
 11
181.2106844951
 21
266.3965322688
 31
0.0
  0
LINE
  5
162
330
1F
100
AcDbEntity
  8
0
  6
Continuous
 62
     7
370
    15
100
AcDbLine
 10
156.3985747267
 20
263.8965323247
 30
0.0
 11
181.2106844951
 21
263.8965323247
 31
0.0
  0
LINE
  5
163
330
1F
100
AcDbEntity
  8
0
  6
Continuous
 62
     7
370
    15
100
AcDbLine
 10
156.3985747267
 20
263.8965323247
 30
0.0
 11
156.3985747267
 21
278.2965320773
 31
0.0
  0
LINE
  5
164
330
1F
100
AcDbEntity
  8
0
  6
Continuous
 62
     7
370
    15
100
AcDbLine
 10
181.2106844951
 20
274.9965320952
 30
0.0
 11
182.3249411751
 21
274.9965320952
 31
0.0
  0
LINE
  5
165
330
1F
100
AcDbEntity
  8
0
  6
Continuous
 62
     7
370
    15
100
AcDbLine
 10
181.2106844951
 20
266.3965322688
 30
0.0
 11
182.3249411751
 21
266.3965322688
 31
0.0
  0
LINE
  5
166
330
1F
100
AcDbEntity
  8
0
  6
Continuous
 62
     7
370
    15
100
AcDbLine
 10
181.3383054901
 20
263.0991814337
 30
0.0
 11
183.2305368949
 21
263.0991814337
 31
0.0
  0
LINE
  5
167
330
1F
100
AcDbEntity
  8
0
  6
Continuous
 62
     7
370
    15
100
AcDbLine
 10
183.2305368949
 20
263.0991814337
 30
0.0
 11
183.9032945205
 21
263.096531821
 31
0.0
  0
LINE
  5
168
330
1F
100
AcDbEntity
  8
0
  6
Continuous
 62
     7
370
    15
100
AcDbLine
 10
183.9032945205
 20
263.096531821
 30
0.0
 11
156.5374945272
 21
263.096531821
 31
0.0
  0
ARC
  5
169
330
1F
100
AcDbEntity
  8
0
  6
Continuous
 62
     7
370
    15
100
AcDbCircle
 10
157.6545189581
 20
263.7025646514
 30
0.0
 40
1.270834123965121
100
AcDbArc
 50
171.2206182958
 51
208.4816967507
  0
ARC
  5
16A
330
1F
100
AcDbEntity
  8
0
  6
Continuous
 62
     7
370
    15
100
AcDbCircle
 10
182.6850745616
 20
263.723628958
 30
0.0
 40
1.484493732680839
100
AcDbArc
 50
173.3114100657
 51
204.8754288142
  0
LINE
  5
16B
330
1F
100
AcDbEntity
  8
0
  6
Continuous
 62
     7
370
    15
100
AcDbLine
 10
183.2305368949
 20
279.0938829682
 30
0.0
 11
181.3383054901
 21
279.0938829682
 31
0.0
  0
ARC
  5
16C
330
1F
100
AcDbEntity
  8
0
  6
Continuous
 62
     7
370
    15
100
AcDbCircle
 10
182.6850745616
 20
278.469435444
 30
0.0
 40
1.484493732680839
100
AcDbArc
 50
155.1245711858
 51
186.6885899343
  0
ARC
  5
16D
330
1F
100
AcDbEntity
  8
0
  6
Continuous
 62
     7
370
    15
100
AcDbCircle
 10
157.6545189581
 20
278.4904997506
 30
0.0
 40
1.270834123965121
100
AcDbArc
 50
151.5183032493
 51
188.7793817042
  0
LINE
  5
16E
330
1F
100
AcDbEntity
  8
0
  6
Continuous
 62
     7
370
    15
100
AcDbLine
 10
156.5374945272
 20
279.096532581
 30
0.0
 11
183.9032945205
 21
279.096532581
 31
0.0
  0
LINE
  5
16F
330
1F
100
AcDbEntity
  8
0
  6
Continuous
 62
     7
370
    15
100
AcDbLine
 10
183.9032945205
 20
279.096532581
 30
0.0
 11
183.2305368949
 21
279.0938829682
 31
0.0
  0
LINE
  5
170
330
1F
100
AcDbEntity
  8
0
  6
Continuous
 62
     7
370
    15
100
AcDbLine
 10
181.3383054901
 20
278.2965320773
 30
0.0
 11
181.3383054901
 21
279.0938829682
 31
0.0
  0
LINE
  5
171
330
1F
100
AcDbEntity
  8
0
  6
Continuous
 62
     7
370
    15
100
AcDbLine
 10
181.3496080209
 20
278.2965320773
 30
0.0
 11
181.3496080209
 21
274.9965320952
 31
0.0
  0
LINE
  5
172
330
1F
100
AcDbEntity
  8
0
  6
Continuous
 62
     7
370
    15
100
AcDbLine
 10
181.3383054901
 20
263.0991814337
 30
0.0
 11
181.3383054901
 21
263.8965323247
 31
0.0
  0
LINE
  5
173
330
1F
100
AcDbEntity
  8
0
  6
Continuous
 62
     7
370
    15
100
AcDbLine
 10
181.3496080209
 20
266.3965322688
 30
0.0
 11
181.3496080209
 21
263.8965323247
 31
0.0
  0
LINE
  5
174
330
1F
100
AcDbEntity
  8
0
  6
Continuous
 62
     7
370
    15
100
AcDbLine
 10
183.2305368949
 20
278.2965320773
 30
0.0
 11
183.2305368949
 21
279.0938829682
 31
0.0
  0
LINE
  5
175
330
1F
100
AcDbEntity
  8
0
  6
Continuous
 62
     7
370
    15
100
AcDbLine
 10
187.3383101989
 20
279.096532581
 30
0.0
 11
183.9032945205
 21
279.096532581
 31
0.0
  0
LINE
  5
176
330
1F
100
AcDbEntity
  8
0
  6
Continuous
 62
     7
370
    15
100
AcDbLine
 10
187.3383101989
 20
278.2965320773
 30
0.0
 11
183.2305368949
 21
278.2965320773
 31
0.0
  0
LINE
  5
177
330
1F
100
AcDbEntity
  8
0
  6
Continuous
 62
     7
370
    15
100
AcDbLine
 10
187.3383101989
 20
263.096531821
 30
0.0
 11
183.9032945205
 21
263.096531821
 31
0.0
  0
LINE
  5
178
330
1F
100
AcDbEntity
  8
0
  6
Continuous
 62
     7
370
    15
100
AcDbLine
 10
183.2305368949
 20
263.0991814337
 30
0.0
 11
183.2305368949
 21
263.8965323247
 31
0.0
  0
LINE
  5
179
330
1F
100
AcDbEntity
  8
0
  6
Continuous
 62
     7
370
    15
100
AcDbLine
 10
187.3383101989
 20
263.8965323247
 30
0.0
 11
183.2305368949
 21
263.8965323247
 31
0.0
  0
LINE
  5
17A
330
1F
100
AcDbEntity
  8
0
  6
Continuous
 62
     7
370
    15
100
AcDbLine
 10
181.3383054901
 20
278.2965320773
 30
0.0
 11
183.2305368949
 21
278.2965320773
 31
0.0
  0
LINE
  5
17B
330
1F
100
AcDbEntity
  8
0
  6
Continuous
 62
     7
370
    15
100
AcDbLine
 10
181.3383054901
 20
263.8965323247
 30
0.0
 11
183.2305368949
 21
263.8965323247
 31
0.0
  0
LINE
  5
17C
330
1F
100
AcDbEntity
  8
0
  6
Continuous
 62
     7
370
    15
100
AcDbLine
 10
182.4083057214
 20
279.3965320714
 30
0.0
 11
186.8083056975
 21
279.3965320714
 31
0.0
  0
LINE
  5
17D
330
1F
100
AcDbEntity
  8
0
  6
Continuous
 62
     7
370
    15
100
AcDbLine
 10
182.5083074142
 20
262.2965322487
 30
0.0
 11
186.7083114554
 21
262.2965322487
 31
0.0
  0
LINE
  5
17E
330
1F
100
AcDbEntity
  8
0
  6
Continuous
 62
     7
370
    15
100
AcDbLine
 10
182.5083074142
 20
262.6965325005
 30
0.0
 11
186.7083114554
 21
262.6965325005
 31
0.0
  0
LINE
  5
17F
330
1F
100
AcDbEntity
  8
0
  6
Continuous
 62
     7
370
    15
100
AcDbLine
 10
151.4997285772
 20
278.2965320773
 30
0.0
 11
149.5102484692
 21
278.2965320773
 31
0.0
  0
LINE
  5
180
330
1F
100
AcDbEntity
  8
0
  6
Continuous
 62
     7
370
    15
100
AcDbLine
 10
151.4997285772
 20
263.8965323247
 30
0.0
 11
151.4997285772
 21
278.2965320773
 31
0.0
  0
LINE
  5
181
330
1F
100
AcDbEntity
  8
0
  6
Continuous
 62
     7
370
    15
100
AcDbLine
 10
149.5102484692
 20
263.8965323247
 30
0.0
 11
151.4997285772
 21
263.8965323247
 31
0.0
  0
ARC
  5
182
330
1F
100
AcDbEntity
  8
0
  6
Continuous
 62
     7
370
    15
100
AcDbCircle
 10
164.8042528025
 20
271.096532201
 30
0.0
 40
16.9040399539924
100
AcDbArc
 50
154.7902236235
 51
205.2097763765
  0
SPLINE
  5
183
330
1F
100
AcDbEntity
  8
0
  6
Continuous
 62
     7
370
    15
100
AcDbSpline
210
0.0
220
0.0
230
1.0
 70
     8
 71
     3
 72
    12
 73
     8
 74
     0
 42
0.00000001
 43
0.00000001
 40
0.0
 40
0.0
 40
0.0
 40
0.0
 40
0.1818723398322498
 40
0.3633441453432144
 40
0.5550803379662396
 40
0.7712613770059432
 40
1.0
 40
1.0
 40
1.0
 40
1.0
 10
149.6426266599781
 20
263.0965318210107
 30
0.0
 10
149.6664874877452
 20
263.1038534707744
 30
0.0
 10
149.7141565949893
 20
263.1184806459585
 30
0.0
 10
149.7288936800455
 20
263.2304706388418
 30
0.0
 10
149.7016696532704
 20
263.3998623310014
 30
0.0
 10
149.6299894007326
 20
263.6282867417193
 30
0.0
 10
149.5509061385458
 20
263.8054503523524
 30
0.0
 10
149.5102484692223
 20
263.89653232467
 30
0.0
  0
LINE
  5
184
330
1F
100
AcDbEntity
  8
0
  6
Continuous
 62
     7
370
    15
100
AcDbLine
 10
149.2582623829
 20
263.8510311633
 30
0.0
 11
149.6127088536
 21
263.096531821
 31
0.0
  0
ARC
  5
185
330
1F
100
AcDbEntity
  8
0
  6
Continuous
 62
     7
370
    15
100
AcDbCircle
 10
164.528969324
 20
271.096532201
 30
0.0
 40
16.90241922828413
100
AcDbArc
 50
154.6170368419
 51
205.3829631581
  0
LINE
  5
186
330
1F
100
AcDbEntity
  8
0
  6
Continuous
 62
     7
370
    15
100
AcDbLine
 10
149.6127088536
 20
279.096532581
 30
0.0
 11
149.2582623829
 21
278.3420332387
 31
0.0
  0
SPLINE
  5
187
330
1F
100
AcDbEntity
  8
0
  6
Continuous
 62
     7
370
    15
100
AcDbSpline
210
0.0
220
0.0
230
1.0
 70
     8
 71
     3
 72
    12
 73
     8
 74
     0
 42
0.00000001
 43
0.00000001
 40
0.0
 40
0.0
 40
0.0
 40
0.0
 40
0.2510216974581
 40
0.5023984045762419
 40
0.7402768941595013
 40
0.9473179129745757
 40
1.0
 40
1.0
 40
1.0
 40
1.0
 10
149.5102484692223
 20
278.2965320773107
 30
0.0
 10
149.5545651651147
 20
278.39641433516
 30
0.0
 10
149.6432612321795
 20
278.5963201102268
 30
0.0
 10
149.7182693599342
 20
278.8550534410743
 30
0.0
 10
149.7297491202842
 20
279.0322882340598
 30
0.0
 10
149.6881171846147
 20
279.0927313115749
 30
0.0
 10
149.6502979017899
 20
279.0958915583184
 30
0.0
 10
149.6426266599781
 20
279.0965325809699
 30
0.0
  0
LINE
  5
188
330
1F
100
AcDbEntity
  8
0
  6
Continuous
 62
     7
370
    15
100
AcDbLine
 10
149.64262666
 20
279.096532581
 30
0.0
 11
149.6127088536
 21
279.096532581
 31
0.0
  0
LINE
  5
189
330
1F
100
AcDbEntity
  8
0
  6
Continuous
 62
     7
370
    15
100
AcDbLine
 10
149.64262666
 20
263.096531821
 30
0.0
 11
149.6127088536
 21
263.096531821
 31
0.0
  0
LWPOLYLINE
  5
18A
330
1F
100
AcDbEntity
  8
0
  6
Continuous
 62
     7
370
    15
100
AcDbPolyline
 90
        9
 70
   128
 43
0.0
 10
151.4997285772
 20
278.2965320773
 10
151.4944684673
 20
278.4526045113
 10
151.4789004792
 20
278.6026787623
 10
151.4536132086
 20
278.7409885466
 10
151.4195864071
 20
278.8622174091
 10
151.378123926
 20
278.9617078058
 10
151.3308201898
 20
279.0356361918
 10
151.2794894148
 20
279.0811601706
 10
151.2261097301
 20
279.096532581
  0
LINE
  5
18B
330
1F
100
AcDbEntity
  8
0
  6
Continuous
 62
     7
370
    15
100
AcDbLine
 10
149.64262666
 20
279.096532581
 30
0.0
 11
151.2261097301
 21
279.096532581
 31
0.0
  0
LWPOLYLINE
  5
18C
330
1F
100
AcDbEntity
  8
0
  6
Continuous
 62
     7
370
    15
100
AcDbPolyline
 90
        9
 70
   128
 43
0.0
 10
151.4997285772
 20
263.8965323247
 10
151.4944684673
 20
263.7404598906
 10
151.4789004792
 20
263.5903856396
 10
151.4536132086
 20
263.4520758554
 10
151.4195864071
 20
263.3308469928
 10
151.378123926
 20
263.2313565962
 10
151.3308201898
 20
263.1574282102
 10
151.2794894148
 20
263.1119042314
 10
151.2261097301
 20
263.096531821
  0
LINE
  5
18D
330
1F
100
AcDbEntity
  8
0
  6
Continuous
 62
     7
370
    15
100
AcDbLine
 10
151.2261097301
 20
263.096531821
 30
0.0
 11
149.64262666
 21
263.096531821
 31
0.0
  0
LINE
  5
18E
330
1F
100
AcDbEntity
  8
0
  6
Continuous
 62
     7
370
    15
100
AcDbLine
 10
151.4997285772
 20
263.8965323247
 30
0.0
 11
156.3985747267
 21
263.8965323247
 31
0.0
  0
LINE
  5
18F
330
1F
100
AcDbEntity
  8
0
  6
Continuous
 62
     7
370
    15
100
AcDbLine
 10
156.5374945272
 20
263.096531821
 30
0.0
 11
151.2261097301
 21
263.096531821
 31
0.0
  0
LINE
  5
190
330
1F
100
AcDbEntity
  8
0
  6
Continuous
 62
     7
370
    15
100
AcDbLine
 10
156.3985747267
 20
278.2965320773
 30
0.0
 11
151.4997285772
 21
278.2965320773
 31
0.0
  0
LINE
  5
191
330
1F
100
AcDbEntity
  8
0
  6
Continuous
 62
     7
370
    15
100
AcDbLine
 10
151.2261097301
 20
279.096532581
 30
0.0
 11
156.5374945272
 21
279.096532581
 31
0.0
  0
SPLINE
  5
192
330
1F
100
AcDbEntity
  8
0
  6
Continuous
 62
     7
370
    15
100
AcDbSpline
210
0.0
220
0.0
230
1.0
 70
     8
 71
     3
 72
    16
 73
    12
 74
     0
 42
0.00000001
 43
0.00000001
 40
0.0
 40
0.0
 40
0.0
 40
0.0
 40
0.1207071566778238
 40
0.2414138026719941
 40
0.3621183649329968
 40
0.4828244334300237
 40
0.6035304010997716
 40
0.7242373113019833
 40
0.844942319259683
 40
0.9656485835513967
 40
0.9999999999999999
 40
0.9999999999999999
 40
0.9999999999999999
 40
0.9999999999999999
 10
182.7806037832386
 20
258.1441607005578
 30
0.0
 10
182.8000079233917
 20
258.146832993649
 30
0.0
 10
182.8388161216036
 20
258.1521775685252
 30
0.0
 10
182.8437358546492
 20
258.4431193748053
 30
0.0
 10
182.806525582706
 20
258.8964697710375
 30
0.0
 10
182.7296098139678
 20
259.4639897966554
 30
0.0
 10
182.6257953080894
 20
260.0523181421933
 30
0.0
 10
182.5096878486274
 20
260.5790106739856
 30
0.0
 10
182.4026908660368
 20
260.942302423275
 30
0.0
 10
182.3301142970878
 20
261.1127671333709
 30
0.0
 10
182.3105639444919
 20
261.0796165661401
 30
0.0
 10
182.3062327672131
 20
261.0722724027616
 30
0.0
  0
SPLINE
  5
193
330
1F
100
AcDbEntity
  8
0
  6
Continuous
 62
     7
370
    15
100
AcDbSpline
210
0.0
220
0.0
230
1.0
 70
     8
 71
     3
 72
    16
 73
    12
 74
     0
 42
0.00000001
 43
0.00000001
 40
0.0
 40
0.0
 40
0.0
 40
0.0
 40
0.1205802411602237
 40
0.2411629109963146
 40
0.3617457346389094
 40
0.4823269915945776
 40
0.6029090903734641
 40
0.7234904472457391
 40
0.8440739113133716
 40
0.964656251032841
 40
1.0
 40
1.0
 40
1.0
 40
1.0
 10
182.9511922765858
 20
284.0201845071894
 30
0.0
 10
182.9705972884578
 20
284.0175116954454
 30
0.0
 10
183.0094077030492
 20
284.0121660181227
 30
0.0
 10
183.0143138208678
 20
283.7212220187856
 30
0.0
 10
182.9771080503704
 20
283.2678832901465
 30
0.0
 10
182.9001911947178
 20
282.7003538679718
 30
0.0
 10
182.7963730620135
 20
282.1120224002764
 30
0.0
 10
182.6802837341264
 20
281.5853655317936
 30
0.0
 10
182.5732531235051
 20
281.2218937879483
 30
0.0
 10
182.5005029523537
 20
281.051345858565
 30
0.0
 10
182.4808510679023
 20
281.0849312559618
 30
0.0
 10
182.4763965774662
 20
281.0925440542084
 30
0.0
  0
SPLINE
  5
194
330
1F
100
AcDbEntity
  8
0
  6
Continuous
 62
     7
370
    15
100
AcDbSpline
210
0.0
220
0.0
230
1.0
 70
     8
 71
     3
 72
    16
 73
    12
 74
     0
 42
0.00000001
 43
0.00000001
 40
0.0
 40
0.0
 40
0.0
 40
0.0
 40
0.1205149578428766
 40
0.2410324495601319
 40
0.3615498425755169
 40
0.4820660117024153
 40
0.6025828261582217
 40
0.7230988991090922
 40
0.8436170781144643
 40
0.9641341610538745
 40
1.0
 40
1.0
 40
1.0
 40
1.0
 10
198.3215761352666
 20
260.7605792261344
 30
0.0
 10
198.340980358987
 20
260.7632519734822
 30
0.0
 10
198.3797892144093
 20
260.7685975243733
 30
0.0
 10
198.3847071307202
 20
261.059542583002
 30
0.0
 10
198.3475012004249
 20
261.5128814438321
 30
0.0
 10
198.2705728302384
 20
262.0804077494089
 30
0.0
 10
198.1667567921822
 20
262.6687471394029
 30
0.0
 10
198.050670386292
 20
263.1953767730429
 30
0.0
 10
197.9436259283793
 20
263.5589498820491
 30
0.0
 10
197.8707734340012
 20
263.7295422348647
 30
0.0
 10
197.8510808011009
 20
263.695727280723
 30
0.0
 10
197.8465643693096
 20
263.6879719473106
 30
0.0
  0
SPLINE
  5
195
330
1F
100
AcDbEntity
  8
0
  6
Continuous
 62
     7
370
    15
100
AcDbSpline
210
0.0
220
0.0
230
1.0
 70
     8
 71
     3
 72
    16
 73
    12
 74
     0
 42
0.00000001
 43
0.00000001
 40
0.0
 40
0.0
 40
0.0
 40
0.0
 40
0.1205148032021358
 40
0.2410321808312816
 40
0.3615495485090808
 40
0.4820656771210895
 40
0.6025824662394319
 40
0.723098808852727
 40
0.8436169625203481
 40
0.9641311157927398
 40
1.0
 40
1.0
 40
1.0
 40
1.0
 10
198.4921646286137
 20
281.4037659816128
 30
0.0
 10
198.5115656479267
 20
281.4010931351309
 30
0.0
 10
198.5503681009955
 20
281.3957473850699
 30
0.0
 10
198.5552893734646
 20
281.104803629198
 30
0.0
 10
198.5180795738711
 20
280.6514649792956
 30
0.0
 10
198.4411633546386
 20
280.0839371952003
 30
0.0
 10
198.3373471732199
 20
279.4955972794622
 30
0.0
 10
198.2212487601882
 20
278.968969074285
 30
0.0
 10
198.1142097105644
 20
278.6053985893649
 30
0.0
 10
198.0413519806347
 20
278.4348032690301
 30
0.0
 10
198.021661687373
 20
278.4686178300948
 30
0.0
 10
198.0171454120762
 20
278.476373726098
 30
0.0
  0
SPLINE
  5
196
330
1F
100
AcDbEntity
  8
0
  6
Continuous
 62
     7
370
    15
100
AcDbSpline
210
0.0
220
0.0
230
1.0
 70
    24
 71
     3
 72
    16
 73
    12
 74
     0
 42
0.00000001
 43
0.00000001
 40
0.0
 40
0.0
 40
0.0
 40
0.0
 40
0.06110719973516
 40
0.1864695300788104
 40
0.3118329657763518
 40
0.437195435243349
 40
0.562558541947342
 40
0.6879211427057613
 40
0.8132845673515391
 40
0.9386470368185362
 40
1.0
 40
1.0
 40
1.0
 40
1.0
 10
201.3984945584423
 20
264.2302964493317
 30
0.0
 10
201.4042679151545
 20
264.2302964493317
 30
0.0
 10
201.4218853991461
 20
264.2302964493317
 30
0.0
 10
201.2034504022611
 20
264.2302964493317
 30
0.0
 10
200.7907071230422
 20
264.2302964493317
 30
0.0
 10
200.2342419390829
 20
264.2302964493317
 30
0.0
 10
199.6351402757547
 20
264.2302964493317
 30
0.0
 10
199.0764271970275
 20
264.2302964493317
 30
0.0
 10
198.6594902631323
 20
264.2302964493317
 30
0.0
 10
198.436487065926
 20
264.2302964493317
 30
0.0
 10
198.451302619845
 20
264.2302964493317
 30
0.0
 10
198.45617087375
 20
264.2302964493317
 30
0.0
  0
SPLINE
  5
197
330
1F
100
AcDbEntity
  8
0
  6
Continuous
 62
     7
370
    15
100
AcDbSpline
210
0.0
220
0.0
230
1.0
 70
    24
 71
     3
 72
    16
 73
    12
 74
     0
 42
0.00000001
 43
0.00000001
 40
0.0
 40
0.0
 40
0.0
 40
0.0
 40
0.061009639381562
 40
0.1861718232068119
 40
0.3113351106212064
 40
0.4364974333476865
 40
0.5616603922937852
 40
0.686822846102075
 40
0.8119861224823502
 40
0.9371484452088304
 40
1.0
 40
1.0
 40
1.0
 40
1.0
 10
201.3984945584423
 20
277.7889272808713
 30
0.0
 10
201.4042679088872
 20
277.7889272808713
 30
0.0
 10
201.4218853737541
 20
277.7889272808713
 30
0.0
 10
201.2034506376702
 20
277.7889272808713
 30
0.0
 10
200.790706260532
 20
277.7889272808713
 30
0.0
 10
200.2342451536913
 20
277.7889272808713
 30
0.0
 10
199.6351282797752
 20
277.7889272808713
 30
0.0
 10
199.0764719662399
 20
277.7889272808713
 30
0.0
 10
198.6593231815348
 20
277.7889272808713
 30
0.0
 10
198.4358367428093
 20
277.7889272808713
 30
0.0
 10
198.4510484629185
 20
277.7889272808713
 30
0.0
 10
198.456133620847
 20
277.7889272808713
 30
0.0
  0
SPLINE
  5
198
330
1F
100
AcDbEntity
  8
0
  6
Continuous
 62
     7
370
    15
100
AcDbSpline
210
0.0
220
0.0
230
1.0
 70
     8
 71
     3
 72
    19
 73
    15
 74
     0
 42
0.00000001
 43
0.00000001
 40
0.0
 40
0.0
 40
0.0
 40
0.0
 40
0.0039549809995185
 40
0.1157678183369959
 40
0.2280434424084984
 40
0.3355203096827233
 40
0.4377089451909085
 40
0.5348834340354809
 40
0.6283049581358076
 40
0.730298511094365
 40
0.8413364998007737
 40
0.96412105011313
 40
0.9937658791727169
 40
1.0
 40
1.0
 40
1.0
 40
1.0
 10
187.7265823055394
 20
276.6965320013148
 30
0.0
 10
187.726977093968
 20
276.6965263884871
 30
0.0
 10
187.7385331027313
 20
276.6963620931808
 30
0.0
 10
187.7617640923019
 20
276.6812317268782
 30
0.0
 10
187.8052516401975
 20
276.6143345863509
 30
0.0
 10
187.843241245718
 20
276.5096390527591
 30
0.0
 10
187.8667325482675
 20
276.3845621434549
 30
0.0
 10
187.8780627423273
 20
276.2561263974167
 30
0.0
 10
187.8786557254561
 20
276.1349517865484
 30
0.0
 10
187.8628858201245
 20
276.0257262879266
 30
0.0
 10
187.8225061160649
 20
275.9363093059696
 30
0.0
 10
187.7706393838682
 20
275.9012548392955
 30
0.0
 10
187.7359352148997
 20
275.8966453108707
 30
0.0
 10
187.7279668440223
 20
275.8965491392142
 30
0.0
 10
187.7265823055394
 20
275.8965324289781
 30
0.0
  0
SPLINE
  5
199
330
1F
100
AcDbEntity
  8
0
  6
Continuous
 62
     7
370
    15
100
AcDbSpline
210
0.0
220
0.0
230
1.0
 70
     8
 71
     3
 72
    30
 73
    26
 74
     0
 42
0.00000001
 43
0.00000001
 40
0.0
 40
0.0
 40
0.0
 40
0.0
 40
0.1247112310147824
 40
0.2494130785656202
 40
0.3741280601702755
 40
0.4367858391931411
 40
0.4681550721330039
 40
0.4838427846542153
 40
0.4916894992656079
 40
0.4956138377050519
 40
0.4975728235122767
 40
0.4985522983263023
 40
0.4990422673122084
 40
0.4992870926954017
 40
0.4994095487741307
 40
0.4994707335600724
 40
0.4995013259530433
 40
0.4995195680690418
 40
0.4995320416496219
 40
0.5609187714698142
 40
0.6646254983300477
 40
0.7325782071981156
 40
0.811145407748365
 40
0.9002973933763253
 40
1.0
 40
1.0
 40
1.0
 40
1.0
 10
187.7982792426236
 20
276.7564239591044
 30
0.0
 10
187.8040460745519
 20
276.7546314081443
 30
0.0
 10
187.8155793045032
 20
276.7510464410984
 30
0.0
 10
187.9054279860738
 20
276.7292032688128
 30
0.0
 10
188.0128998725343
 20
276.7035252114989
 30
0.0
 10
188.0984532858197
 20
276.6831138413827
 30
0.0
 10
188.1425555376115
 20
276.6725788727799
 30
0.0
 10
188.1647812207622
 20
276.6672599364608
 30
0.0
 10
188.175914716675
 20
276.6645943506565
 30
0.0
 10
188.1814850166115
 20
276.6632618319827
 30
0.0
 10
188.1842687495443
 20
276.6625930483934
 30
0.0
 10
188.18566016541
 20
276.6622605744138
 30
0.0
 10
188.1863548863028
 20
276.6620922170976
 30
0.0
 10
188.1867029734646
 20
276.6620099513981
 30
0.0
 10
188.1868765674412
 20
276.6619673127514
 30
0.0
 10
188.1869637184798
 20
276.6619474564401
 30
0.0
 10
188.1870081208445
 20
276.6619357944093
 30
0.0
 10
188.187033439858
 20
276.6619316791343
 30
0.0
 10
188.2113480806563
 20
276.6537374954652
 30
0.0
 10
188.2798412781409
 20
276.6430118196305
 30
0.0
 10
188.3701436757633
 20
276.6214819283763
 30
0.0
 10
188.4538074031203
 20
276.6046121520812
 30
0.0
 10
188.5173293084895
 20
276.5916543565455
 30
0.0
 10
188.5678440001233
 20
276.5820303414679
 30
0.0
 10
188.5750743377458
 20
276.5815654041133
 30
0.0
 10
188.5788914729245
 20
276.5813199482542
 30
0.0
  0
ELLIPSE
  5
19A
330
1F
100
AcDbEntity
  8
0
  6
Continuous
 62
     7
370
    15
100
AcDbEllipse
 10
188.4554169571
 20
277.8785073797
 30
0.0
 11
0.3906095144045878
 21
-0.0861638396116291
 31
0.0
210
0.0
220
0.0
230
1.0
 40
0.0142285888
 41
0.0
 42
6.283185307179586
  0
LINE
  5
19B
330
1F
100
AcDbEntity
  8
0
  6
Continuous
 62
     7
370
    15
100
AcDbLine
 10
187.6283091475
 20
277.8465323761
 30
0.0
 11
181.4283085037
 21
277.8465323761
 31
0.0
  0
LINE
  5
19C
330
1F
100
AcDbEntity
  8
0
  6
Continuous
 62
     7
370
    15
100
AcDbLine
 10
187.6283091475
 20
277.8465323761
 30
0.0
 11
187.6283091475
 21
276.8465322122
 31
0.0
  0
LINE
  5
19D
330
1F
100
AcDbEntity
  8
0
  6
Continuous
 62
     7
370
    15
100
AcDbLine
 10
187.6283091475
 20
276.8465322122
 30
0.0
 11
181.4283085037
 21
276.8465322122
 31
0.0
  0
LINE
  5
19E
330
1F
100
AcDbEntity
  8
0
  6
Continuous
 62
     7
370
    15
100
AcDbLine
 10
181.4283085037
 20
277.8465323761
 30
0.0
 11
181.4283085037
 21
276.8465322122
 31
0.0
  0
LINE
  5
19F
330
1F
100
AcDbEntity
  8
0
  6
Continuous
 62
     7
370
    15
100
AcDbLine
 10
187.6283091475
 20
265.3465321898
 30
0.0
 11
187.6283091475
 21
264.3465320259
 31
0.0
  0
LINE
  5
1A0
330
1F
100
AcDbEntity
  8
0
  6
Continuous
 62
     7
370
    15
100
AcDbLine
 10
187.6283091475
 20
264.3465320259
 30
0.0
 11
181.4283085037
 21
264.3465320259
 31
0.0
  0
LINE
  5
1A1
330
1F
100
AcDbEntity
  8
0
  6
Continuous
 62
     7
370
    15
100
AcDbLine
 10
181.4283085037
 20
265.3465321898
 30
0.0
 11
181.4283085037
 21
264.3465320259
 31
0.0
  0
LINE
  5
1A2
330
1F
100
AcDbEntity
  8
0
  6
Continuous
 62
     7
370
    15
100
AcDbLine
 10
187.6283091475
 20
265.3465321898
 30
0.0
 11
181.4283085037
 21
265.3465321898
 31
0.0
  0
LWPOLYLINE
  5
1A3
330
1F
100
AcDbEntity
  8
0
  6
Continuous
 62
     7
370
    15
100
AcDbPolyline
 90
        3
 70
   128
 43
0.0
 10
181.3496080209
 20
264.7353936597
 10
181.3521859218
 20
264.7292157314
 10
181.4283085037
 20
264.3465320259
  0
LWPOLYLINE
  5
1A4
330
1F
100
AcDbEntity
  8
0
  6
Continuous
 62
     7
370
    15
100
AcDbPolyline
 90
        3
 70
   128
 43
0.0
 10
181.4283085037
 20
277.8465323761
 10
181.3521859218
 20
277.4638486705
 10
181.3496080209
 20
277.4576707422
  0
LINE
  5
1A5
330
1F
100
AcDbEntity
  8
0
  6
Continuous
 62
     7
370
    15
100
AcDbLine
 10
187.6283091475
 20
276.8465322122
 30
0.0
 11
187.6283091475
 21
276.6965320013
 31
0.0
  0
LINE
  5
1A6
330
1F
100
AcDbEntity
  8
0
  6
Continuous
 62
     7
370
    15
100
AcDbLine
 10
187.6283091475
 20
275.896532429
 30
0.0
 11
187.6283091475
 21
274.9965320952
 31
0.0
  0
LINE
  5
1A7
330
1F
100
AcDbEntity
  8
0
  6
Continuous
 62
     7
370
    15
100
AcDbLine
 10
187.6283091475
 20
266.3965322688
 30
0.0
 11
187.6283091475
 21
265.3465321898
 31
0.0
  0
LINE
  5
1A8
330
1F
100
AcDbEntity
  8
0
  6
Continuous
 62
     7
370
    15
100
AcDbLine
 10
119.6283082459
 20
456.0965345852
 30
0.0
 11
119.6283082459
 21
86.0965298168
 31
0.0
  0
LINE
  5
1A9
330
1F
100
AcDbEntity
  8
0
  6
Continuous
 62
     7
370
    15
100
AcDbLine
 10
119.6283082459
 20
86.0965298168
 30
0.0
 11
104.6283085812
 21
86.0965298168
 31
0.0
  0
LINE
  5
1AA
330
1F
100
AcDbEntity
  8
0
  6
Continuous
 62
     7
370
    15
100
AcDbLine
 10
104.6283085812
 20
456.0965345852
 30
0.0
 11
104.6283085812
 21
86.0965298168
 31
0.0
  0
LINE
  5
1AB
330
1F
100
AcDbEntity
  8
0
  6
Continuous
 62
     7
370
    15
100
AcDbLine
 10
104.6283085812
 20
456.0965345852
 30
0.0
 11
119.6283082459
 21
456.0965345852
 31
0.0
  0
LINE
  5
1AC
330
1F
100
AcDbEntity
  8
0
  6
Continuous
 62
     7
370
    15
100
AcDbLine
 10
119.6283082459
 20
86.0965298168
 30
0.0
 11
119.6283082459
 21
71.0965292208
 31
0.0
  0
ARC
  5
1AD
330
1F
100
AcDbEntity
  8
0
  6
Continuous
 62
     7
370
    15
100
AcDbCircle
 10
119.6283085633
 20
86.096532201
 30
0.0
 40
15.00000000000001
100
AcDbArc
 50
180.0
 51
270.0
  0
ARC
  5
1AE
330
1F
100
AcDbEntity
  8
0
  6
Continuous
 62
     7
370
    15
100
AcDbCircle
 10
119.6283085633
 20
456.096532201
 30
0.0
 40
15.0
100
AcDbArc
 50
90.0
 51
180.0
  0
LINE
  5
1AF
330
1F
100
AcDbEntity
  8
0
  6
Continuous
 62
     7
370
    15
100
AcDbLine
 10
119.6283082459
 20
471.0965351812
 30
0.0
 11
119.6283082459
 21
456.0965345852
 31
0.0
  0
LINE
  5
1B0
330
1F
100
AcDbEntity
  8
0
  6
Continuous
 62
     7
370
    15
100
AcDbLine
 10
200.6283056904
 20
86.0965298168
 30
0.0
 11
119.6283082459
 21
86.0965298168
 31
0.0
  0
LINE
  5
1B1
330
1F
100
AcDbEntity
  8
0
  6
Continuous
 62
     7
370
    15
100
AcDbLine
 10
200.6283056904
 20
86.0965298168
 30
0.0
 11
200.6283056904
 21
71.0965292208
 31
0.0
  0
LINE
  5
1B2
330
1F
100
AcDbEntity
  8
0
  6
Continuous
 62
     7
370
    15
100
AcDbLine
 10
200.6283056904
 20
71.0965292208
 30
0.0
 11
119.6283082459
 21
71.0965292208
 31
0.0
  0
LINE
  5
1B3
330
1F
100
AcDbEntity
  8
0
  6
Continuous
 62
     7
370
    15
100
AcDbLine
 10
200.6283056904
 20
471.0965351812
 30
0.0
 11
119.6283082459
 21
471.0965351812
 31
0.0
  0
LINE
  5
1B4
330
1F
100
AcDbEntity
  8
0
  6
Continuous
 62
     7
370
    15
100
AcDbLine
 10
200.6283056904
 20
471.0965351812
 30
0.0
 11
200.6283056904
 21
456.0965345852
 31
0.0
  0
LINE
  5
1B5
330
1F
100
AcDbEntity
  8
0
  6
Continuous
 62
     7
370
    15
100
AcDbLine
 10
200.6283056904
 20
456.0965345852
 30
0.0
 11
119.6283082459
 21
456.0965345852
 31
0.0
  0
LINE
  5
1B6
330
1F
100
AcDbEntity
  8
0
  6
Continuous
 62
     7
370
    15
100
AcDbLine
 10
180.6283098627
 20
279.096532581
 30
0.0
 11
180.6283098627
 21
280.5559346132
 31
0.0
  0
LINE
  5
1B7
330
1F
100
AcDbEntity
  8
0
  6
Continuous
 62
     7
370
    15
100
AcDbLine
 10
180.6283098627
 20
283.8986506365
 30
0.0
 11
180.6283098627
 21
451.0965393535
 31
0.0
  0
LINE
  5
1B8
330
1F
100
AcDbEntity
  8
0
  6
Continuous
 62
     7
370
    15
100
AcDbLine
 10
180.6283098627
 20
451.0965393535
 30
0.0
 11
124.6283081342
 21
451.0965393535
 31
0.0
  0
LINE
  5
1B9
330
1F
100
AcDbEntity
  8
0
  6
Continuous
 62
     7
370
    15
100
AcDbLine
 10
124.6283081342
 20
451.0965393535
 30
0.0
 11
124.6283081342
 21
91.0965250484
 31
0.0
  0
LINE
  5
1BA
330
1F
100
AcDbEntity
  8
0
  6
Continuous
 62
     7
370
    15
100
AcDbLine
 10
180.6283098627
 20
91.0965250484
 30
0.0
 11
124.6283081342
 21
91.0965250484
 31
0.0
  0
LINE
  5
1BB
330
1F
100
AcDbEntity
  8
0
  6
Continuous
 62
     7
370
    15
100
AcDbLine
 10
180.6283098627
 20
91.0965250484
 30
0.0
 11
180.6283098627
 21
258.2839857466
 31
0.0
  0
LINE
  5
1BC
330
1F
100
AcDbEntity
  8
0
  6
Continuous
 62
     7
370
    15
100
AcDbLine
 10
180.6283098627
 20
261.6237718291
 30
0.0
 11
180.6283098627
 21
263.096531821
 31
0.0
  0
LINE
  5
1BD
330
1F
100
AcDbEntity
  8
0
  6
Continuous
 62
     7
370
    15
100
AcDbLine
 10
200.6283056904
 20
86.0965298168
 30
0.0
 11
200.6283056904
 21
262.0886247284
 31
0.0
  0
LINE
  5
1BE
330
1F
100
AcDbEntity
  8
0
  6
Continuous
 62
     7
370
    15
100
AcDbLine
 10
200.6283056904
 20
280.0724617816
 30
0.0
 11
200.6283056904
 21
456.0965345852
 31
0.0
  0
LINE
  5
1BF
330
1F
100
AcDbEntity
  8
0
  6
Continuous
 62
     7
370
    15
100
AcDbLine
 10
204.628306346
 20
91.0965250484
 30
0.0
 11
200.6283056904
 21
91.0965250484
 31
0.0
  0
LINE
  5
1C0
330
1F
100
AcDbEntity
  8
0
  6
Continuous
 62
     7
370
    15
100
AcDbLine
 10
204.628306346
 20
76.0965393535
 30
0.0
 11
200.6283056904
 21
76.0965393535
 31
0.0
  0
LINE
  5
1C1
330
1F
100
AcDbEntity
  8
0
  6
Continuous
 62
     7
370
    15
100
AcDbLine
 10
204.628306346
 20
466.0965250484
 30
0.0
 11
200.6283056904
 21
466.0965250484
 31
0.0
  0
LINE
  5
1C2
330
1F
100
AcDbEntity
  8
0
  6
Continuous
 62
     7
370
    15
100
AcDbLine
 10
204.628306346
 20
451.0965393535
 30
0.0
 11
200.6283056904
 21
451.0965393535
 31
0.0
  0
LINE
  5
1C3
330
1F
100
AcDbEntity
  8
0
  6
Continuous
 62
     7
370
    15
100
AcDbLine
 10
381.3551334825
 20
550.4372964249
 30
0.0
 11
382.5551239934
 21
550.4372964249
 31
0.0
  0
LINE
  5
1C4
330
1F
100
AcDbEntity
  8
0
  6
Continuous
 62
     7
370
    15
100
AcDbLine
 10
381.2551317897
 20
552.9372940407
 30
0.0
 11
381.3551334825
 21
552.9372940407
 31
0.0
  0
LINE
  5
1C5
330
1F
100
AcDbEntity
  8
0
  6
Continuous
 62
     7
370
    15
100
AcDbLine
 10
381.3551334825
 20
558.9372987495
 30
0.0
 11
381.2551317897
 21
558.9372987495
 31
0.0
  0
LINE
  5
1C6
330
1F
100
AcDbEntity
  8
0
  6
Continuous
 62
     7
370
    15
100
AcDbLine
 10
377.1068869319
 20
615.937295054
 30
0.0
 11
376.3551233497
 21
615.6636799322
 31
0.0
  0
SPLINE
  5
1C7
330
1F
100
AcDbEntity
  8
0
  6
Continuous
 62
     7
370
    15
100
AcDbSpline
210
0.0
220
0.0
230
1.0
 70
     8
 71
     3
 72
    15
 73
    11
 74
     0
 42
0.00000001
 43
0.00000001
 40
0.0
 40
0.0
 40
0.0
 40
0.0
 40
0.1250744365219807
 40
0.2501503690700617
 40
0.3752914238507727
 40
0.5003033456113692
 40
0.6252875688433512
 40
0.7502617631629114
 40
0.8750784298966161
 40
0.9999999999999999
 40
0.9999999999999999
 40
0.9999999999999999
 40
0.9999999999999999
 10
380.1695672955693
 20
580.9951300368776
 30
0.0
 10
380.1434423137099
 20
581.2538916134529
 30
0.0
 10
380.0911920375078
 20
581.7714178616726
 30
0.0
 10
380.0123247662503
 20
582.5525305343343
 30
0.0
 10
379.9378928908537
 20
583.2897116303049
 30
0.0
 10
379.8709016807904
 20
583.9532880537704
 30
0.0
 10
379.8147949384177
 20
584.5090512725519
 30
0.0
 10
379.7722529793961
 20
584.93014755496
 30
0.0
 10
379.7434268733394
 20
585.2157551097042
 30
0.0
 10
379.7390842860232
 20
585.2587900549361
 30
0.0
 10
379.7369120803059
 20
585.2803165660372
 30
0.0
  0
SPLINE
  5
1C8
330
1F
100
AcDbEntity
  8
0
  6
Continuous
 62
     7
370
    15
100
AcDbSpline
210
0.0
220
0.0
230
1.0
 70
     8
 71
     3
 72
    15
 73
    11
 74
     0
 42
0.00000001
 43
0.00000001
 40
0.0
 40
0.0
 40
0.0
 40
0.0
 40
0.124939617022092
 40
0.2497688509603433
 40
0.374751241408195
 40
0.4997376030196825
 40
0.6247470132670949
 40
0.7498793343755585
 40
0.8749425669552483
 40
1.0
 40
1.0
 40
1.0
 40
1.0
 10
376.7526714291752
 20
584.978933130311
 30
0.0
 10
376.7548481533992
 20
584.9573549686432
 30
0.0
 10
376.7591996787297
 20
584.914217709429
 30
0.0
 10
376.7880457399959
 20
584.6285073624787
 30
0.0
 10
376.8305819826716
 20
584.2073238653504
 30
0.0
 10
376.8866888754063
 20
583.6515479233594
 30
0.0
 10
376.9536846194231
 20
582.9880260921218
 30
0.0
 10
377.0280957307191
 20
582.2509768105842
 30
0.0
 10
377.1069541471663
 20
581.470066740508
 30
0.0
 10
377.1591830141423
 20
580.9527096973889
 30
0.0
 10
377.1852968421162
 20
580.6940371737948
 30
0.0
  0
LINE
  5
1C9
330
1F
100
AcDbEntity
  8
0
  6
Continuous
 62
     7
370
    15
100
AcDbLine
 10
377.1850137201
 20
580.6939030633
 30
0.0
 11
378.7540910926
 21
565.1529307113
 31
0.0
  0
LINE
  5
1CA
330
1F
100
AcDbEntity
  8
0
  6
Continuous
 62
     7
370
    15
100
AcDbLine
 10
381.738912889
 20
565.4542917953
 30
0.0
 11
380.1698504176
 21
580.9952641473
 31
0.0
  0
SPLINE
  5
1CB
330
1F
100
AcDbEntity
  8
0
  6
Continuous
 62
     7
370
    15
100
AcDbSpline
210
0.0
220
0.0
230
1.0
 70
     8
 71
     3
 72
     9
 73
     5
 74
     0
 42
0.00000001
 43
0.00000001
 40
0.0
 40
0.0
 40
0.0
 40
0.0
 40
0.4837383992592056
 40
0.9999999999999999
 40
0.9999999999999999
 40
0.9999999999999999
 40
0.9999999999999999
 10
378.9241729464711
 20
563.4715581880083
 30
0.0
 10
378.9336335239062
 20
563.4073267078855
 30
0.0
 10
378.9531907421249
 20
563.2745452701887
 30
0.0
 10
378.9870334275278
 20
563.2383976451687
 30
0.0
 10
379.0045051064671
 20
563.2197360144129
 30
0.0
  0
SPLINE
  5
1CC
330
1F
100
AcDbEntity
  8
0
  6
Continuous
 62
     7
370
    15
100
AcDbSpline
210
0.0
220
0.0
230
1.0
 70
     8
 71
     3
 72
    11
 73
     7
 74
     0
 42
0.00000001
 43
0.00000001
 40
0.0
 40
0.0
 40
0.0
 40
0.0
 40
0.2484400313536671
 40
0.4978858035227358
 40
0.7483872183351494
 40
1.0
 40
1.0
 40
1.0
 40
1.0
 10
378.7543742146672
 20
565.1530871735087
 30
0.0
 10
378.772389026513
 20
564.974615597099
 30
0.0
 10
378.8084915781925
 20
564.61694995142
 30
0.0
 10
378.8554844642388
 20
564.1521134698827
 30
0.0
 10
378.8943131443316
 20
563.7692331068554
 30
0.0
 10
378.9093408790987
 20
563.6219382450599
 30
0.0
 10
378.9168713774861
 20
563.5481278048029
 30
0.0
  0
SPLINE
  5
1CD
330
1F
100
AcDbEntity
  8
0
  6
Continuous
 62
     7
370
    15
100
AcDbSpline
210
0.0
220
0.0
230
1.0
 70
     8
 71
     3
 72
    19
 73
    15
 74
     0
 42
0.00000001
 43
0.00000001
 40
0.0
 40
0.0
 40
0.0
 40
0.0
 40
0.080281755629487
 40
0.1534415944044286
 40
0.2193411972437899
 40
0.2779493423871587
 40
0.3728442556420708
 40
0.4421532682602004
 40
0.5315367006395667
 40
0.6554833364437546
 40
0.7303570865728389
 40
0.8130797286521475
 40
0.9031427835411386
 40
1.0
 40
1.0
 40
1.0
 40
1.0
 10
378.9398191657246
 20
563.3889163480272
 30
0.0
 10
378.9751787553573
 20
563.2660394413608
 30
0.0
 10
379.0427611315544
 20
563.0311862256264
 30
0.0
 10
379.2399937739663
 20
562.736778826314
 30
0.0
 10
379.4648398572552
 20
562.512647430025
 30
0.0
 10
379.7605127278101
 20
562.3196181982386
 30
0.0
 10
380.1024555434572
 20
562.2016998710691
 30
0.0
 10
380.5122101877085
 20
562.1719155243147
 30
0.0
 10
380.9512972395887
 20
562.2742084514522
 30
0.0
 10
381.3378390612488
 20
562.5254395672656
 30
0.0
 10
381.6306773820976
 20
562.8661620379804
 30
0.0
 10
381.8114425930919
 20
563.221630114955
 30
0.0
 10
381.9173675674814
 20
563.6485664816427
 30
0.0
 10
381.885096305144
 20
563.943632344306
 30
0.0
 10
381.8683741774739
 20
564.0965277896395
 30
0.0
  0
SPLINE
  5
1CE
330
1F
100
AcDbEntity
  8
0
  6
Continuous
 62
     7
370
    15
100
AcDbSpline
210
0.0
220
0.0
230
1.0
 70
     8
 71
     3
 72
    11
 73
     7
 74
     0
 42
0.00000001
 43
0.00000001
 40
0.0
 40
0.0
 40
0.0
 40
0.0
 40
0.2477436400961851
 40
0.4969471568772039
 40
0.7476766819245632
 40
1.0
 40
1.0
 40
1.0
 40
1.0
 10
381.8921564307392
 20
563.9288524733057
 30
0.0
 10
381.8857143458834
 20
563.9934785065818
 30
0.0
 10
381.8727922149571
 20
564.1231113943702
 30
0.0
 10
381.8368391796807
 20
564.4809779275755
 30
0.0
 10
381.7918544917624
 20
564.9273044241987
 30
0.0
 10
381.7564186990538
 20
565.2781693896202
 30
0.0
 10
381.7386446681202
 20
565.4541576848497
 30
0.0
  0
LINE
  5
1CF
330
1F
100
AcDbEntity
  8
0
  6
Continuous
 62
     7
370
    15
100
AcDbLine
 10
382.0224372831
 20
575.1089627491
 30
0.0
 11
382.0224223819
 21
575.4087815629
 31
0.0
  0
LINE
  5
1D0
330
1F
100
AcDbEntity
  8
0
  6
Continuous
 62
     7
370
    15
100
AcDbLine
 10
381.2224237409
 20
575.4087815629
 30
0.0
 11
381.2224237409
 21
575.1114139901
 31
0.0
  0
SPLINE
  5
1D1
330
1F
100
AcDbEntity
  8
0
  6
Continuous
 62
     7
370
    15
100
AcDbSpline
210
0.0
220
0.0
230
1.0
 70
    24
 71
     3
 72
    11
 73
     7
 74
     0
 42
0.00000001
 43
0.00000001
 40
0.0
 40
0.0
 40
0.0
 40
0.0
 40
0.0207833414794417
 40
0.3465559490330116
 40
0.6711464500042603
 40
0.9999999999999999
 40
0.9999999999999999
 40
0.9999999999999999
 40
0.9999999999999999
 10
381.2224237408818
 20
575.6950999246111
 30
0.0
 10
381.2224237408818
 20
575.6917782121154
 30
0.0
 10
381.2224237408819
 20
575.6363896583779
 30
0.0
 10
381.2224237408818
 20
575.5431572706026
 30
0.0
 10
381.2224237408818
 20
575.4304422855662
 30
0.0
 10
381.2224237408818
 20
575.3959255288577
 30
0.0
 10
381.2224237408818
 20
575.3785545573702
 30
0.0
  0
SPLINE
  5
1D2
330
1F
100
AcDbEntity
  8
0
  6
Continuous
 62
     7
370
    15
100
AcDbSpline
210
0.0
220
0.0
230
1.0
 70
    24
 71
     3
 72
    11
 73
     7
 74
     0
 42
0.00000001
 43
0.00000001
 40
0.0
 40
0.0
 40
0.0
 40
0.0
 40
0.250483117174979
 40
0.4977293257689061
 40
0.7458640769072823
 40
1.0
 40
1.0
 40
1.0
 40
1.0
 10
382.0224372830571
 20
575.3761033163538
 30
0.0
 10
382.0224372830571
 20
575.3923171136843
 30
0.0
 10
382.0224372830571
 20
575.4245351829276
 30
0.0
 10
382.0224372830571
 20
575.5333194071665
 30
0.0
 10
382.0224372830572
 20
575.6721510137364
 30
0.0
 10
382.0224372830571
 20
575.7791777806137
 30
0.0
 10
382.0224372830571
 20
575.8333305464258
 30
0.0
  0
LINE
  5
1D3
330
1F
100
AcDbEntity
  8
0
  6
Continuous
 62
     7
370
    15
100
AcDbLine
 10
381.0156999316
 20
575.9372959481
 30
0.0
 11
381.2246142116
 21
575.6900707827
 31
0.0
  0
LINE
  5
1D4
330
1F
100
AcDbEntity
  8
0
  6
Continuous
 62
     7
370
    15
100
AcDbLine
 10
382.0224372831
 20
575.8333305464
 30
0.0
 11
382.0224372831
 21
575.9372959481
 31
0.0
  0
LINE
  5
1D5
330
1F
100
AcDbEntity
  8
0
  6
Continuous
 62
     7
370
    15
100
AcDbLine
 10
376.7460404124
 20
585.0753212915
 30
0.0
 11
376.7304388967
 21
585.5345452772
 31
0.0
  0
SPLINE
  5
1D6
330
1F
100
AcDbEntity
  8
0
  6
Continuous
 62
     7
370
    15
100
AcDbSpline
210
0.0
220
0.0
230
1.0
 70
     8
 71
     3
 72
    11
 73
     7
 74
     0
 42
0.00000001
 43
0.00000001
 40
0.0
 40
0.0
 40
0.0
 40
0.0
 40
0.1207586884497559
 40
0.4133941938278811
 40
0.7063576004656975
 40
1.0
 40
1.0
 40
1.0
 40
1.0
 10
378.7787227120579
 20
564.9118820772638
 30
0.0
 10
378.7886402062963
 20
564.813581606827
 30
0.0
 10
378.82259084445
 20
564.4770688121715
 30
0.0
 10
378.8699626584101
 20
564.0081511181252
 30
0.0
 10
378.9128439570582
 20
563.5834245301211
 30
0.0
 10
378.9203937037371
 20
563.508875731983
 30
0.0
 10
378.9241729464711
 20
563.4715581880083
 30
0.0
  0
LINE
  5
1D7
330
1F
100
AcDbEntity
  8
0
  6
Continuous
 62
     7
370
    15
100
AcDbLine
 10
382.5551239934
 20
614.9372967527
 30
0.0
 11
382.2551338163
 21
614.9372967527
 31
0.0
  0
LINE
  5
1D8
330
1F
100
AcDbEntity
  8
0
  6
Continuous
 62
     7
370
    15
100
AcDbLine
 10
382.2551338163
 20
613.9372947262
 30
0.0
 11
382.1551321235
 21
613.9372947262
 31
0.0
  0
LINE
  5
1D9
330
1F
100
AcDbEntity
  8
0
  6
Continuous
 62
     7
370
    15
100
AcDbLine
 10
382.1551321235
 20
607.937297468
 30
0.0
 11
382.2551338163
 21
607.937297468
 31
0.0
  0
LINE
  5
1DA
330
1F
100
AcDbEntity
  8
0
  6
Continuous
 62
     7
370
    15
100
AcDbLine
 10
382.2551338163
 20
590.9372965441
 30
0.0
 11
382.1551321235
 21
590.9372965441
 31
0.0
  0
LINE
  5
1DB
330
1F
100
AcDbEntity
  8
0
  6
Continuous
 62
     7
370
    15
100
AcDbLine
 10
382.1551321235
 20
584.9372992859
 30
0.0
 11
382.2551338163
 21
584.9372992859
 31
0.0
  0
LINE
  5
1DC
330
1F
100
AcDbEntity
  8
0
  6
Continuous
 62
     7
370
    15
100
AcDbLine
 10
382.5551239934
 20
558.9372987495
 30
0.0
 11
382.5551239934
 21
553.9372960673
 31
0.0
  0
LINE
  5
1DD
330
1F
100
AcDbEntity
  8
0
  6
Continuous
 62
     7
370
    15
100
AcDbLine
 10
397.5551245895
 20
558.9372987495
 30
0.0
 11
397.5551245895
 21
553.9372960673
 31
0.0
  0
LINE
  5
1DE
330
1F
100
AcDbEntity
  8
0
  6
Continuous
 62
     7
370
    15
100
AcDbLine
 10
382.5551239934
 20
553.9372960673
 30
0.0
 11
397.5551245895
 21
553.9372960673
 31
0.0
  0
LINE
  5
1DF
330
1F
100
AcDbEntity
  8
0
  6
Continuous
 62
     7
370
    15
100
AcDbLine
 10
382.5551239934
 20
558.9372987495
 30
0.0
 11
397.5551245895
 21
558.9372987495
 31
0.0
  0
ARC
  5
1E0
330
1F
100
AcDbEntity
  8
0
  6
Continuous
 62
     7
370
    15
100
AcDbCircle
 10
397.5551299539
 20
553.9372965322
 30
0.0
 40
15.0
100
AcDbArc
 50
180.0
 51
270.0
  0
LINE
  5
1E1
330
1F
100
AcDbEntity
  8
0
  6
Continuous
 62
     7
370
    15
100
AcDbLine
 10
397.5551245895
 20
538.9372954712
 30
0.0
 11
397.5551245895
 21
553.9372960673
 31
0.0
  0
LINE
  5
1E2
330
1F
100
AcDbEntity
  8
0
  6
Continuous
 62
     7
370
    15
100
AcDbLine
 10
667.5551353183
 20
558.9372987495
 30
0.0
 11
667.5551353183
 21
553.9372960673
 31
0.0
  0
LINE
  5
1E3
330
1F
100
AcDbEntity
  8
0
  6
Continuous
 62
     7
370
    15
100
AcDbLine
 10
397.5551245895
 20
553.9372960673
 30
0.0
 11
667.5551353183
 21
553.9372960673
 31
0.0
  0
LINE
  5
1E4
330
1F
100
AcDbEntity
  8
0
  6
Continuous
 62
     7
370
    15
100
AcDbLine
 10
397.5551245895
 20
558.9372987495
 30
0.0
 11
667.5551353183
 21
558.9372987495
 31
0.0
  0
LINE
  5
1E5
330
1F
100
AcDbEntity
  8
0
  6
Continuous
 62
     7
370
    15
100
AcDbLine
 10
667.5551353183
 20
553.9372960673
 30
0.0
 11
667.5551353183
 21
538.9372954712
 31
0.0
  0
LINE
  5
1E6
330
1F
100
AcDbEntity
  8
0
  6
Continuous
 62
     7
370
    15
100
AcDbLine
 10
397.5551245895
 20
538.9372954712
 30
0.0
 11
667.5551353183
 21
538.9372954712
 31
0.0
  0
LINE
  5
1E7
330
1F
100
AcDbEntity
  8
0
  6
Continuous
 62
     7
370
    15
100
AcDbLine
 10
682.5551359143
 20
558.9372987495
 30
0.0
 11
682.5551359143
 21
553.9372960673
 31
0.0
  0
LINE
  5
1E8
330
1F
100
AcDbEntity
  8
0
  6
Continuous
 62
     7
370
    15
100
AcDbLine
 10
682.5551359143
 20
553.9372960673
 30
0.0
 11
667.5551353183
 21
553.9372960673
 31
0.0
  0
LINE
  5
1E9
330
1F
100
AcDbEntity
  8
0
  6
Continuous
 62
     7
370
    15
100
AcDbLine
 10
682.5551359143
 20
558.9372987495
 30
0.0
 11
667.5551353183
 21
558.9372987495
 31
0.0
  0
ARC
  5
1EA
330
1F
100
AcDbEntity
  8
0
  6
Continuous
 62
     7
370
    15
100
AcDbCircle
 10
667.5551299539
 20
553.9372965322
 30
0.0
 40
15.0
100
AcDbArc
 50
270.0
 51
0.0
  0
LINE
  5
1EB
330
1F
100
AcDbEntity
  8
0
  6
Continuous
 62
     7
370
    15
100
AcDbLine
 10
381.3551334825
 20
556.9550643311
 30
0.0
 11
382.5551239934
 21
556.9550643311
 31
0.0
  0
LINE
  5
1EC
330
1F
100
AcDbEntity
  8
0
  6
Continuous
 62
     7
370
    15
100
AcDbLine
 10
381.3551334825
 20
554.8510874258
 30
0.0
 11
382.5551239934
 21
554.8510874258
 31
0.0
  0
LINE
  5
1ED
330
1F
100
AcDbEntity
  8
0
  6
Continuous
 62
     7
370
    15
100
AcDbLine
 10
381.3551334825
 20
554.8510874258
 30
0.0
 11
381.3551334825
 21
556.9550643311
 31
0.0
  0
LINE
  5
1EE
330
1F
100
AcDbEntity
  8
0
  6
Continuous
 62
     7
370
    15
100
AcDbLine
 10
381.3551334825
 20
561.9372973786
 30
0.0
 11
382.5551239934
 21
561.9372973786
 31
0.0
  0
LINE
  5
1EF
330
1F
100
AcDbEntity
  8
0
  6
Continuous
 62
     7
370
    15
100
AcDbLine
 10
382.5551239934
 20
558.9372987495
 30
0.0
 11
382.5551239934
 21
561.9372973786
 31
0.0
  0
LINE
  5
1F0
330
1F
100
AcDbEntity
  8
0
  6
Continuous
 62
     7
370
    15
100
AcDbLine
 10
381.3551334825
 20
561.9372973786
 30
0.0
 11
381.3551334825
 21
556.9550643311
 31
0.0
  0
LINE
  5
1F1
330
1F
100
AcDbEntity
  8
0
  6
Continuous
 62
     7
370
    15
100
AcDbLine
 10
382.5551239934
 20
553.9372960673
 30
0.0
 11
382.5551239934
 21
550.4372964249
 31
0.0
  0
LINE
  5
1F2
330
1F
100
AcDbEntity
  8
0
  6
Continuous
 62
     7
370
    15
100
AcDbLine
 10
381.3551334825
 20
550.4372964249
 30
0.0
 11
381.3551334825
 21
554.8510874258
 31
0.0
  0
LINE
  5
1F3
330
1F
100
AcDbEntity
  8
0
  6
Continuous
 62
     7
370
    15
100
AcDbLine
 10
381.2551317897
 20
552.9372940407
 30
0.0
 11
381.2551317897
 21
558.9372987495
 31
0.0
  0
ARC
  5
1F4
330
1F
100
AcDbEntity
  8
0
  6
Continuous
 62
     7
370
    15
100
AcDbCircle
 10
379.7551299539
 20
563.6372965322
 30
0.0
 40
2.800000000000011
100
AcDbArc
 50
0.0
 51
45.4024529621
  0
LINE
  5
1F5
330
1F
100
AcDbEntity
  8
0
  6
Continuous
 62
     7
370
    15
100
AcDbLine
 10
378.6474732843
 20
566.2088940487
 30
0.0
 11
378.0505923715
 21
565.8586869584
 31
0.0
  0
LINE
  5
1F6
330
1F
100
AcDbEntity
  8
0
  6
Continuous
 62
     7
370
    15
100
AcDbLine
 10
375.2376703706
 20
562.1876815901
 30
0.0
 11
378.7811068978
 21
564.9066592203
 31
0.0
  0
LINE
  5
1F7
330
1F
100
AcDbEntity
  8
0
  6
Continuous
 62
     7
370
    15
100
AcDbLine
 10
374.5071558442
 20
563.1397093282
 30
0.0
 11
375.2376703706
 21
562.1876815901
 31
0.0
  0
LINE
  5
1F8
330
1F
100
AcDbEntity
  8
0
  6
Continuous
 62
     7
370
    15
100
AcDbLine
 10
378.0505923715
 20
565.8586869584
 30
0.0
 11
374.5071558442
 21
563.1397093282
 31
0.0
  0
LINE
  5
1F9
330
1F
100
AcDbEntity
  8
0
  6
Continuous
 62
     7
370
    15
100
AcDbLine
 10
382.5551239934
 20
561.9372973786
 30
0.0
 11
382.5551239934
 21
562.9372994051
 31
0.0
  0
LINE
  5
1FA
330
1F
100
AcDbEntity
  8
0
  6
Continuous
 62
     7
370
    15
100
AcDbLine
 10
381.3551334825
 20
562.5782335744
 30
0.0
 11
381.3551334825
 21
561.9372973786
 31
0.0
  0
LINE
  5
1FB
330
1F
100
AcDbEntity
  8
0
  6
Continuous
 62
     7
370
    15
100
AcDbLine
 10
374.2856500831
 20
561.4571670638
 30
0.0
 11
373.5551355567
 21
562.4091948019
 31
0.0
  0
LWPOLYLINE
  5
1FC
330
1F
100
AcDbEntity
  8
0
  6
Continuous
 62
     7
370
    15
100
AcDbPolyline
 90
        9
 70
   128
 43
0.0
 10
373.5551355567
 20
562.4091948019
 10
373.5734192815
 20
562.4232316957
 10
373.6275999036
 20
562.4647984848
 10
373.7155763593
 20
562.5323081956
 10
373.833966085
 20
562.6231531249
 10
373.9782391277
 20
562.7338538514
 10
374.1428373542
 20
562.8601486431
 10
374.3214277711
 20
562.997187172
 10
374.5071558442
 20
563.1397093282
  0
LWPOLYLINE
  5
1FD
330
1F
100
AcDbEntity
  8
0
  6
Continuous
 62
     7
370
    15
100
AcDbPolyline
 90
        9
 70
   128
 43
0.0
 10
375.2376703706
 20
562.1876815901
 10
375.0519422975
 20
562.0451668845
 10
374.8733369794
 20
561.9081283555
 10
374.708753654
 20
561.7818335639
 10
374.5644806113
 20
561.6711328373
 10
374.4460908857
 20
561.5802804575
 10
374.35811443
 20
561.5127781973
 10
374.3039338079
 20
561.4712039576
 10
374.2856500831
 20
561.4571670638
  0
ARC
  5
1FE
330
1F
100
AcDbEntity
  8
0
  6
Continuous
 62
     7
370
    15
100
AcDbCircle
 10
377.6551299539
 20
578.9572965322
 30
0.0
 40
2.20000000000012
100
AcDbArc
 50
103.5934783352
 51
268.1042765976
  0
LINE
  5
1FF
330
1F
100
AcDbEntity
  8
0
  6
Continuous
 62
     7
370
    15
100
AcDbLine
 10
374.1082964626
 20
580.3350682006
 30
0.0
 11
374.4419483628
 21
582.2272996054
 31
0.0
  0
LWPOLYLINE
  5
200
330
1F
100
AcDbEntity
  8
0
  6
Continuous
 62
     7
370
    15
100
AcDbPolyline
 90
        9
 70
   128
 43
0.0
 10
374.4419483628
 20
582.2272996054
 10
374.2977200237
 20
582.252728437
 10
374.1606740442
 20
582.2768906699
 10
374.0355638948
 20
582.298951839
 10
373.9267258134
 20
582.3181445346
 10
373.8378999915
 20
582.333805655
 10
373.7721560683
 20
582.3453987585
 10
373.7317888227
 20
582.3525215135
 10
373.7181691613
 20
582.3549206005
  0
LINE
  5
201
330
1F
100
AcDbEntity
  8
0
  6
Continuous
 62
     7
370
    15
100
AcDbLine
 10
373.7181691613
 20
582.3549206005
 30
0.0
 11
378.0932096925
 21
607.1670303689
 31
0.0
  0
LWPOLYLINE
  5
202
330
1F
100
AcDbEntity
  8
0
  6
Continuous
 62
     7
370
    15
100
AcDbPolyline
 90
        9
 70
   128
 43
0.0
 10
378.0932096925
 20
607.1670303689
 10
378.1083492723
 20
607.1643593357
 10
378.1531868663
 20
607.1564542697
 10
378.2259939399
 20
607.1436169193
 10
378.3239690747
 20
607.1263427482
 10
378.4433571782
 20
607.1052911327
 10
378.5795686927
 20
607.0812741862
 10
378.7273584094
 20
607.0552120553
 10
378.8810638871
 20
607.0281105683
  0
LINE
  5
203
330
1F
100
AcDbEntity
  8
0
  6
Continuous
 62
     7
370
    15
100
AcDbLine
 10
378.8810638871
 20
607.0281105683
 30
0.0
 11
374.055740067
 21
579.6623105751
 31
0.0
  0
LINE
  5
204
330
1F
100
AcDbEntity
  8
0
  6
Continuous
 62
     7
370
    15
100
AcDbLine
 10
374.055740067
 20
579.6623105751
 30
0.0
 11
374.1082964626
 21
580.3350682006
 31
0.0
  0
LWPOLYLINE
  5
205
330
1F
100
AcDbEntity
  8
0
  6
Continuous
 62
     7
370
    15
100
AcDbPolyline
 90
        5
 70
   128
 43
0.0
 10
376.9405154672
 20
614.0553566263
 10
376.6870467153
 20
614.7517623947
 10
376.5034793105
 20
615.2560735689
 10
376.3923464503
 20
615.5614318893
 10
376.3551233497
 20
615.6636799322
  0
LWPOLYLINE
  5
206
330
1F
100
AcDbEntity
  8
0
  6
Continuous
 62
     7
370
    15
100
AcDbPolyline
 90
        5
 70
   128
 43
0.0
 10
377.7001319614
 20
614.3073427127
 10
377.443295547
 20
615.0130132781
 10
377.2572694507
 20
615.5241305576
 10
377.1446017709
 20
615.833646302
 10
377.1068869319
 20
615.937295054
  0
LINE
  5
207
330
1F
100
AcDbEntity
  8
0
  6
Continuous
 62
     7
370
    15
100
AcDbLine
 10
377.922233769
 20
613.952896242
 30
0.0
 11
377.7001319614
 21
614.3073427127
 31
0.0
  0
LINE
  5
208
330
1F
100
AcDbEntity
  8
0
  6
Continuous
 62
     7
370
    15
100
AcDbLine
 10
377.8400389638
 20
613.9229784356
 30
0.0
 11
377.922233769
 21
613.952896242
 31
0.0
  0
SPLINE
  5
209
330
1F
100
AcDbEntity
  8
0
  6
Continuous
 62
     7
370
    15
100
AcDbSpline
210
0.0
220
0.0
230
1.0
 70
     8
 71
     3
 72
    12
 73
     8
 74
     0
 42
0.00000001
 43
0.00000001
 40
0.0
 40
0.0
 40
0.0
 40
0.0
 40
0.2510216974581
 40
0.5023984045762419
 40
0.7402768941595013
 40
0.9473179129745757
 40
1.0
 40
1.0
 40
1.0
 40
1.0
 10
376.9405154671849
 20
614.0553566263189
 30
0.0
 10
376.9682244004384
 20
614.0110399304266
 30
0.0
 10
377.0236814545498
 20
613.9223438633618
 30
0.0
 10
377.2306786513328
 20
613.8473357356071
 30
0.0
 10
377.4920698839931
 20
613.8358559752571
 30
0.0
 10
377.7086580174759
 20
613.8774879109266
 30
0.0
 10
377.8178836904483
 20
613.9153071937513
 30
0.0
 10
377.8400389638127
 20
613.9229784355631
 30
0.0
  0
LINE
  5
20A
330
1F
100
AcDbEntity
  8
0
  6
Continuous
 62
     7
370
    15
100
AcDbLine
 10
377.8400389638
 20
613.9229784356
 30
0.0
 11
378.4163711753
 21
612.3394953654
 31
0.0
  0
LWPOLYLINE
  5
20B
330
1F
100
AcDbEntity
  8
0
  6
Continuous
 62
     7
370
    15
100
AcDbPolyline
 90
        9
 70
   128
 43
0.0
 10
377.6646224942
 20
612.0658765183
 10
377.6790617194
 20
612.0711366282
 10
377.7218429532
 20
612.0867046164
 10
377.7913121667
 20
612.1119918869
 10
377.884802052
 20
612.1460186885
 10
377.9987214294
 20
612.1874811695
 10
378.1286893573
 20
612.2347849057
 10
378.2697139468
 20
612.2861156807
 10
378.4163711753
 20
612.3394953654
  0
LINE
  5
20C
330
1F
100
AcDbEntity
  8
0
  6
Continuous
 62
     7
370
    15
100
AcDbLine
 10
377.6646224942
 20
612.0658765183
 30
0.0
 11
376.9405154672
 21
614.0553566263
 31
0.0
  0
ARC
  5
20D
330
1F
100
AcDbEntity
  8
0
  6
Continuous
 62
     7
370
    15
100
AcDbCircle
 10
378.24513546
 20
585.1262874507
 30
0.0
 40
1.600000000000041
100
AcDbArc
 50
347.034367059
 51
204.5705045339
  0
ARC
  5
20E
330
1F
100
AcDbEntity
  8
0
  6
Continuous
 62
     7
370
    15
100
AcDbCircle
 10
378.7578444253
 20
613.1493613865
 30
0.0
 40
0.5
100
AcDbArc
 50
36.8410865503
 51
90.0
  0
ARC
  5
20F
330
1F
100
AcDbEntity
  8
0
  6
Continuous
 62
     7
370
    15
100
AcDbCircle
 10
371.5551299539
 20
607.7529825782
 30
0.0
 40
9.5
100
AcDbArc
 50
0.0
 51
36.8410865502
  0
LINE
  5
210
330
1F
100
AcDbEntity
  8
0
  6
Continuous
 62
     7
370
    15
100
AcDbLine
 10
381.0551284042
 20
607.7529812799
 30
0.0
 11
381.0551284042
 21
579.727294539
 31
0.0
  0
ARC
  5
211
330
1F
100
AcDbEntity
  8
0
  6
Continuous
 62
     7
370
    15
100
AcDbCircle
 10
368.7375429134
 20
608.8166870005
 30
0.0
 40
10.30000000000016
100
AcDbArc
 50
350.0
 51
20.0
  0
ARC
  5
212
330
1F
100
AcDbEntity
  8
0
  6
Continuous
 62
     7
370
    15
100
AcDbCircle
 10
378.6398318797
 20
614.6493613865
 30
0.0
 40
0.9999999999998863
100
AcDbArc
 50
224.1440002858
 51
270.0
  0
LINE
  5
213
330
1F
100
AcDbEntity
  8
0
  6
Continuous
 62
     7
370
    15
100
AcDbLine
 10
378.6398289886
 20
613.6493595884
 30
0.0
 11
378.7578461852
 21
613.6493595884
 31
0.0
  0
LWPOLYLINE
  5
214
330
1F
100
AcDbEntity
  8
0
  6
Continuous
 62
     7
370
    15
100
AcDbPolyline
 90
        3
 70
   128
 43
0.0
 10
381.0551284042
 20
579.727294539
 10
380.8465121474
 20
578.5370121346
 10
380.4903445926
 20
577.820854877
  0
ARC
  5
215
330
1F
100
AcDbEntity
  8
0
  6
Continuous
 62
     7
370
    15
100
AcDbCircle
 10
377.5551299539
 20
579.7272965322
 30
0.0
 40
3.500000000000009
100
AcDbArc
 50
181.0639402281
 51
271.3221928089
  0
ARC
  5
216
330
1F
100
AcDbEntity
  8
0
  6
Continuous
 62
     7
370
    15
100
AcDbCircle
 10
368.7375429134
 20
608.8166870005
 30
0.0
 40
9.500000000000444
100
AcDbArc
 50
350.0
 51
20.0
  0
ARC
  5
217
330
1F
100
AcDbEntity
  8
0
  6
Continuous
 62
     7
370
    15
100
AcDbCircle
 10
378.1487477473
 20
580.424792059
 30
0.0
 40
4.698428302688012
100
AcDbArc
 50
170.0
 51
264.3261771658
  0
LINE
  5
218
330
1F
100
AcDbEntity
  8
0
  6
Continuous
 62
     7
370
    15
100
AcDbLine
 10
373.7181691613
 20
582.3549206005
 30
0.0
 11
373.521697351
 21
581.2406639204
 31
0.0
  0
SPLINE
  5
219
330
1F
100
AcDbEntity
  8
0
  6
Continuous
 62
     7
370
    15
100
AcDbSpline
210
0.0
220
0.0
230
1.0
 70
     8
 71
     3
 72
    12
 73
     8
 74
     0
 42
0.00000001
 43
0.00000001
 40
0.0
 40
0.0
 40
0.0
 40
0.0
 40
0.2340518500848962
 40
0.4681084143424835
 40
0.7021652771456403
 40
0.9362190989366869
 40
0.9999999999999999
 40
0.9999999999999999
 40
0.9999999999999999
 40
0.9999999999999999
 10
378.8521109309376
 20
580.6144128189554
 30
0.0
 10
378.6557180791392
 20
580.5950302083369
 30
0.0
 10
378.2629284198812
 20
580.5562645967034
 30
0.0
 10
377.7254294239231
 20
580.5510224513681
 30
0.0
 10
377.351927713902
 20
580.589505127795
 30
0.0
 10
377.1727346132325
 20
580.6441552742408
 30
0.0
 10
377.2014537222616
 20
580.6881109889555
 30
0.0
 10
377.2076038804234
 20
580.6975240455141
 30
0.0
  0
SPLINE
  5
21A
330
1F
100
AcDbEntity
  8
0
  6
Continuous
 62
     7
370
    15
100
AcDbSpline
210
0.0
220
0.0
230
1.0
 70
     8
 71
     3
 72
    11
 73
     7
 74
     0
 42
0.00000001
 43
0.00000001
 40
0.0
 40
0.0
 40
0.0
 40
0.0
 40
0.198686486802408
 40
0.4657890565669508
 40
0.7328959069263856
 40
1.0
 40
1.0
 40
1.0
 40
1.0
 10
380.148020216483
 20
580.9932971940508
 30
0.0
 10
380.1468364637109
 20
580.9688074448902
 30
0.0
 10
380.1440613424847
 20
580.9113950997397
 30
0.0
 10
379.8745441915976
 20
580.8042999273943
 30
0.0
 10
379.4274758016498
 20
580.6934970276072
 30
0.0
 10
379.0438985612409
 20
580.6407741311311
 30
0.0
 10
378.8521109309376
 20
580.6144128189554
 30
0.0
  0
SPLINE
  5
21B
330
1F
100
AcDbEntity
  8
0
  6
Continuous
 62
     7
370
    15
100
AcDbSpline
210
0.0
220
0.0
230
1.0
 70
     8
 71
     3
 72
    12
 73
     8
 74
     0
 42
0.00000001
 43
0.00000001
 40
0.0
 40
0.0
 40
0.0
 40
0.0
 40
0.2339702271299507
 40
0.4679328904885977
 40
0.7018980303025738
 40
0.9358629961404901
 40
1.0
 40
1.0
 40
1.0
 40
1.0
 10
378.2451419320286
 20
586.6262863026133
 30
0.0
 10
378.0490565581664
 20
586.6037811045936
 30
0.0
 10
377.6568921494746
 20
586.5587714361005
 30
0.0
 10
377.1539558473822
 20
586.2112793094491
 30
0.0
 10
376.8341434695087
 20
585.7177923072638
 30
0.0
 10
376.7062162787274
 20
585.2642076570339
 30
0.0
 10
376.7640053844172
 20
585.0212146863755
 30
0.0
 10
376.7764387812794
 20
584.96893445115
 30
0.0
  0
SPLINE
  5
21C
330
1F
100
AcDbEntity
  8
0
  6
Continuous
 62
     7
370
    15
100
AcDbSpline
210
0.0
220
0.0
230
1.0
 70
     8
 71
     3
 72
    11
 73
     7
 74
     0
 42
0.00000001
 43
0.00000001
 40
0.0
 40
0.0
 40
0.0
 40
0.0
 40
0.1976896372521521
 40
0.4651276561127174
 40
0.7325628442169249
 40
1.0
 40
1.0
 40
1.0
 40
1.0
 10
379.7153501000584
 20
585.275995229291
 30
0.0
 10
379.6970699061095
 20
585.4207462170191
 30
0.0
 10
379.6540599442171
 20
585.7613188872806
 30
0.0
 10
379.3286007132355
 20
586.2110918368566
 30
0.0
 10
378.8353091440548
 20
586.5588152818545
 30
0.0
 10
378.4418648185027
 20
586.6037959072024
 30
0.0
 10
378.2451419320286
 20
586.6262863026133
 30
0.0
  0
SPLINE
  5
21D
330
1F
100
AcDbEntity
  8
0
  6
Continuous
 62
     7
370
    15
100
AcDbSpline
210
0.0
220
0.0
230
1.0
 70
     8
 71
     3
 72
    12
 73
     8
 74
     0
 42
0.00000001
 43
0.00000001
 40
0.0
 40
0.0
 40
0.0
 40
0.0
 40
0.2350125244436734
 40
0.470030069204972
 40
0.70504759456043
 40
0.9400627036485777
 40
1.0
 40
1.0
 40
1.0
 40
1.0
 10
380.4211883034886
 20
565.0734404669275
 30
0.0
 10
380.2248027564976
 20
565.0540625945022
 30
0.0
 10
379.8320274673442
 20
565.015306435703
 30
0.0
 10
379.2944187338958
 20
565.0100379505352
 30
0.0
 10
378.9213365468325
 20
565.0485671595912
 30
0.0
 10
378.7423401178469
 20
565.1026773370644
 30
0.0
 10
378.7702126178411
 20
565.1459791011713
 30
0.0
 10
378.7758765902699
 20
565.1547784553042
 30
0.0
  0
SPLINE
  5
21E
330
1F
100
AcDbEntity
  8
0
  6
Continuous
 62
     7
370
    15
100
AcDbSpline
210
0.0
220
0.0
230
1.0
 70
     8
 71
     3
 72
    11
 73
     7
 74
     0
 42
0.00000001
 43
0.00000001
 40
0.0
 40
0.0
 40
0.0
 40
0.0
 40
0.1989239528429226
 40
0.4659512217777148
 40
0.7329742825759883
 40
0.9999999999999999
 40
0.9999999999999999
 40
0.9999999999999999
 40
0.9999999999999999
 10
381.7171422925175
 20
565.4524366007319
 30
0.0
 10
381.7159684212305
 20
565.4279109814137
 30
0.0
 10
381.7132187937844
 20
565.3704631873048
 30
0.0
 10
381.4436133923896
 20
565.2633306111122
 30
0.0
 10
380.9965503560797
 20
565.1525230874013
 30
0.0
 10
380.6129762903821
 20
565.0998014278401
 30
0.0
 10
380.4211883034886
 20
565.0734404669275
 30
0.0
  0
ARC
  5
21F
330
1F
100
AcDbEntity
  8
0
  6
Continuous
 62
     7
370
    15
100
AcDbCircle
 10
381.6224161472
 20
575.3750723985
 30
0.0
 40
0.4000075631347627
100
AcDbArc
 50
0.1476654792
 51
179.5012206112
  0
ELLIPSE
  5
220
330
1F
100
AcDbEntity
  8
0
  6
Continuous
 62
     7
370
    15
100
AcDbEllipse
 10
381.6224293542
 20
575.1101881385
 30
0.0
 11
0.3991830274373455
 21
-0.02624604221136906
 31
0.0
210
0.0
220
0.0
230
0.9999999999999999
 40
0.9763157485
 41
0.0
 42
6.283185307179586
  0
SPLINE
  5
221
330
1F
100
AcDbEntity
  8
0
  6
Continuous
 62
     7
370
    15
100
AcDbSpline
210
0.0
220
0.0
230
1.0
 70
     8
 71
     3
 72
    13
 73
     9
 74
     0
 42
0.00000001
 43
0.00000001
 40
0.0
 40
0.0
 40
0.0
 40
0.0
 40
0.0081702305184465
 40
0.2391540597909445
 40
0.4710939174990594
 40
0.693120466081165
 40
0.9042225443386908
 40
1.0
 40
1.0
 40
1.0
 40
1.0
 10
381.6224305119694
 20
575.8390227900019
 30
0.0
 10
381.6207716108364
 20
575.8386279946292
 30
0.0
 10
381.5722132574504
 20
575.8270717826019
 30
0.0
 10
381.4760812653769
 20
575.8038755531543
 30
0.0
 10
381.3532451916143
 20
575.7602336342796
 30
0.0
 10
381.2675960151066
 20
575.7227791470214
 30
0.0
 10
381.2235772180992
 20
575.7016326656621
 30
0.0
 10
381.2268092426519
 20
575.6966538261515
 30
0.0
 10
381.2278179612339
 20
575.6950999246111
 30
0.0
  0
SPLINE
  5
222
330
1F
100
AcDbEntity
  8
0
  6
Continuous
 62
     7
370
    15
100
AcDbSpline
210
0.0
220
0.0
230
1.0
 70
     8
 71
     3
 72
    13
 73
     9
 74
     0
 42
0.00000001
 43
0.00000001
 40
0.0
 40
0.0
 40
0.0
 40
0.0
 40
0.1252289285960488
 40
0.2499779134280402
 40
0.4999780450168358
 40
0.749997895397136
 40
0.8747543546657531
 40
0.9999999999999999
 40
0.9999999999999999
 40
0.9999999999999999
 40
0.9999999999999999
 10
382.0224372830571
 20
575.8333305464258
 30
0.0
 10
382.0207229608702
 20
575.8333573005532
 30
0.0
 10
382.0173008866893
 20
575.8334107062718
 30
0.0
 10
381.9829210127308
 20
575.8338872975978
 30
0.0
 10
381.9076571979436
 20
575.8349646951286
 30
0.0
 10
381.7989948570159
 20
575.8365140550461
 30
0.0
 10
381.7002816180068
 20
575.8379109243903
 30
0.0
 10
381.648414710455
 20
575.8386516849757
 30
0.0
 10
381.6224305119694
 20
575.8390227900019
 30
0.0
  0
SPLINE
  5
223
330
1F
100
AcDbEntity
  8
0
  6
Continuous
 62
     7
370
    15
100
AcDbSpline
210
0.0
220
0.0
230
1.0
 70
     8
 71
     3
 72
    10
 73
     6
 74
     0
 42
0.00000001
 43
0.00000001
 40
0.0
 40
0.0
 40
0.0
 40
0.0
 40
0.0190107309040389
 40
0.5253203859619627
 40
1.0
 40
1.0
 40
1.0
 40
1.0
 10
381.6224305119694
 20
575.8390227900019
 30
0.0
 10
381.6239548619502
 20
575.8397604868024
 30
0.0
 10
381.6660769731047
 20
575.8601451406005
 30
0.0
 10
381.748595807129
 20
575.8985598758912
 30
0.0
 10
381.8187513818021
 20
575.924664487716
 30
0.0
 10
381.8526981558979
 20
575.9372959480753
 30
0.0
  0
LINE
  5
224
330
1F
100
AcDbEntity
  8
0
  6
Continuous
 62
     7
370
    15
100
AcDbLine
 10
376.745906302
 20
585.0782568202
 30
0.0
 11
376.7583636728
 21
584.9274868713
 31
0.0
  0
LINE
  5
225
330
1F
100
AcDbEntity
  8
0
  6
Continuous
 62
     7
370
    15
100
AcDbLine
 10
379.7381339755
 20
585.2709958897
 30
0.0
 11
379.7025500026
 21
585.4811618672
 31
0.0
  0
LINE
  5
226
330
1F
100
AcDbEntity
  8
0
  6
Continuous
 62
     7
370
    15
100
AcDbLine
 10
667.5551353183
 20
643.9372968496
 30
0.0
 11
682.5551359143
 21
643.9372968496
 31
0.0
  0
LINE
  5
227
330
1F
100
AcDbEntity
  8
0
  6
Continuous
 62
     7
370
    15
100
AcDbLine
 10
667.5551353183
 20
643.9372968496
 30
0.0
 11
667.5551353183
 21
658.9372965143
 31
0.0
  0
ARC
  5
228
330
1F
100
AcDbEntity
  8
0
  6
Continuous
 62
     7
370
    15
100
AcDbCircle
 10
667.5551299539
 20
643.9372965322
 30
0.0
 40
15.0
100
AcDbArc
 50
0.0
 51
90.0
  0
LINE
  5
229
330
1F
100
AcDbEntity
  8
0
  6
Continuous
 62
     7
370
    15
100
AcDbLine
 10
397.5551245895
 20
643.9372968496
 30
0.0
 11
397.5551245895
 21
658.9372965143
 31
0.0
  0
LINE
  5
22A
330
1F
100
AcDbEntity
  8
0
  6
Continuous
 62
     7
370
    15
100
AcDbLine
 10
397.5551245895
 20
643.9372968496
 30
0.0
 11
382.5551239934
 21
643.9372968496
 31
0.0
  0
ARC
  5
22B
330
1F
100
AcDbEntity
  8
0
  6
Continuous
 62
     7
370
    15
100
AcDbCircle
 10
397.5551299539
 20
643.9372965322
 30
0.0
 40
15.0
100
AcDbArc
 50
90.0
 51
180.0
  0
LINE
  5
22C
330
1F
100
AcDbEntity
  8
0
  6
Continuous
 62
     7
370
    15
100
AcDbLine
 10
667.5551353183
 20
658.9372965143
 30
0.0
 11
397.5551245895
 21
658.9372965143
 31
0.0
  0
LINE
  5
22D
330
1F
100
AcDbEntity
  8
0
  6
Continuous
 62
     7
370
    15
100
AcDbLine
 10
667.5551353183
 20
643.9372968496
 30
0.0
 11
397.5551245895
 21
643.9372968496
 31
0.0
  0
LINE
  5
22E
330
1F
100
AcDbEntity
  8
0
  6
Continuous
 62
     7
370
    15
100
AcDbLine
 10
682.5551359143
 20
643.9372968496
 30
0.0
 11
682.5551359143
 21
562.9372994051
 31
0.0
  0
LINE
  5
22F
330
1F
100
AcDbEntity
  8
0
  6
Continuous
 62
     7
370
    15
100
AcDbLine
 10
682.5551359143
 20
562.9372994051
 30
0.0
 11
667.5551353183
 21
562.9372994051
 31
0.0
  0
LINE
  5
230
330
1F
100
AcDbEntity
  8
0
  6
Continuous
 62
     7
370
    15
100
AcDbLine
 10
667.5551353183
 20
643.9372968496
 30
0.0
 11
667.5551353183
 21
562.9372994051
 31
0.0
  0
LINE
  5
231
330
1F
100
AcDbEntity
  8
0
  6
Continuous
 62
     7
370
    15
100
AcDbLine
 10
397.5551245895
 20
562.9372994051
 30
0.0
 11
397.5551245895
 21
643.9372968496
 31
0.0
  0
LINE
  5
232
330
1F
100
AcDbEntity
  8
0
  6
Continuous
 62
     7
370
    15
100
AcDbLine
 10
397.5551245895
 20
562.9372994051
 30
0.0
 11
382.5551239934
 21
562.9372994051
 31
0.0
  0
LINE
  5
233
330
1F
100
AcDbEntity
  8
0
  6
Continuous
 62
     7
370
    15
100
AcDbLine
 10
382.5551239934
 20
562.9372994051
 30
0.0
 11
382.5551239934
 21
643.9372968496
 31
0.0
  0
LINE
  5
234
330
1F
100
AcDbEntity
  8
0
  6
Continuous
 62
     7
370
    15
100
AcDbLine
 10
402.5551347223
 20
582.9372952328
 30
0.0
 11
402.5551347223
 21
638.9372969614
 31
0.0
  0
LINE
  5
235
330
1F
100
AcDbEntity
  8
0
  6
Continuous
 62
     7
370
    15
100
AcDbLine
 10
402.5551347223
 20
582.9372952328
 30
0.0
 11
662.5551251855
 21
582.9372952328
 31
0.0
  0
LINE
  5
236
330
1F
100
AcDbEntity
  8
0
  6
Continuous
 62
     7
370
    15
100
AcDbLine
 10
662.5551251855
 20
638.9372969614
 30
0.0
 11
662.5551251855
 21
582.9372952328
 31
0.0
  0
LINE
  5
237
330
1F
100
AcDbEntity
  8
0
  6
Continuous
 62
     7
370
    15
100
AcDbLine
 10
662.5551251855
 20
638.9372969614
 30
0.0
 11
402.5551347223
 21
638.9372969614
 31
0.0
  0
LINE
  5
238
330
1F
100
AcDbEntity
  8
0
  6
Continuous
 62
     7
370
    15
100
AcDbLine
 10
397.5551245895
 20
562.9372994051
 30
0.0
 11
667.5551353183
 21
562.9372994051
 31
0.0
  0
LINE
  5
239
330
1F
100
AcDbEntity
  8
0
  6
Continuous
 62
     7
370
    15
100
AcDbLine
 10
402.5551347223
 20
558.9372987495
 30
0.0
 11
402.5551347223
 21
562.9372994051
 31
0.0
  0
LINE
  5
23A
330
1F
100
AcDbEntity
  8
0
  6
Continuous
 62
     7
370
    15
100
AcDbLine
 10
387.5551341262
 20
558.9372987495
 30
0.0
 11
387.5551341262
 21
562.9372994051
 31
0.0
  0
LINE
  5
23B
330
1F
100
AcDbEntity
  8
0
  6
Continuous
 62
     7
370
    15
100
AcDbLine
 10
677.5551257816
 20
558.9372987495
 30
0.0
 11
677.5551257816
 21
562.9372994051
 31
0.0
  0
LINE
  5
23C
330
1F
100
AcDbEntity
  8
0
  6
Continuous
 62
     7
370
    15
100
AcDbLine
 10
662.5551251855
 20
558.9372987495
 30
0.0
 11
662.5551251855
 21
562.9372994051
 31
0.0
  0
LINE
  5
23D
330
1F
100
AcDbEntity
  8
0
  6
Continuous
 62
     7
370
    15
100
AcDbLine
 10
682.5551359143
 20
562.9372994051
 30
0.0
 11
683.2224546161
 21
562.9372994051
 31
0.0
  0
ARC
  5
23E
330
1F
100
AcDbEntity
  8
0
  6
Continuous
 62
     7
370
    15
100
AcDbCircle
 10
683.222447702
 20
563.4372965322
 30
0.0
 40
0.5000000000001061
100
AcDbArc
 50
270.0
 51
332.720387264
  0
ARC
  5
23F
330
1F
100
AcDbEntity
  8
0
  6
Continuous
 62
     7
370
    15
100
AcDbCircle
 10
688.5551299539
 20
560.6872965322
 30
0.0
 40
5.500000000000011
100
AcDbArc
 50
202.024312837
 51
152.720387264
  0
ARC
  5
240
330
1F
100
AcDbEntity
  8
0
  6
Continuous
 62
     7
370
    15
100
AcDbCircle
 10
682.9929810886
 20
558.4372965322
 30
0.0
 40
0.5
100
AcDbArc
 50
22.024312837
 51
90.0
  0
LINE
  5
241
330
1F
100
AcDbEntity
  8
0
  6
Continuous
 62
     7
370
    15
100
AcDbLine
 10
682.9929767337
 20
558.9372987495
 30
0.0
 11
682.5551359143
 21
558.9372987495
 31
0.0
  0
LINE
  5
242
330
1F
100
AcDbEntity
  8
0
  6
Continuous
 62
     7
370
    15
100
AcDbLine
 10
382.2551338163
 20
582.1372965918
 30
0.0
 11
382.5551239934
 21
582.1383545743
 31
0.0
  0
LINE
  5
243
330
1F
100
AcDbEntity
  8
0
  6
Continuous
 62
     7
370
    15
100
AcDbLine
 10
382.5551239934
 20
584.1372931943
 30
0.0
 11
382.2551338163
 21
584.1372931943
 31
0.0
  0
LINE
  5
244
330
1F
100
AcDbEntity
  8
0
  6
Continuous
 62
     7
370
    15
100
AcDbLine
 10
382.2551338163
 20
582.1372965918
 30
0.0
 11
382.2551338163
 21
584.1372931943
 31
0.0
  0
LINE
  5
245
330
1F
100
AcDbEntity
  8
0
  6
Continuous
 62
     7
370
    15
100
AcDbLine
 10
382.2551338163
 20
575.9372959481
 30
0.0
 11
382.2551338163
 21
582.1372965918
 31
0.0
  0
LINE
  5
246
330
1F
100
AcDbEntity
  8
0
  6
Continuous
 62
     7
370
    15
100
AcDbLine
 10
382.5551239934
 20
575.9372959481
 30
0.0
 11
382.2551338163
 21
575.9372959481
 31
0.0
  0
ARC
  5
247
330
1F
100
AcDbEntity
  8
0
  6
Continuous
 62
     7
370
    15
100
AcDbCircle
 10
377.3551299539
 20
579.0372965322
 30
0.0
 40
3.099999999999961
100
AcDbArc
 50
192.3149190288
 51
270.0
  0
LINE
  5
248
330
1F
100
AcDbEntity
  8
0
  6
Continuous
 62
     7
370
    15
100
AcDbLine
 10
382.2551338163
 20
582.1372965918
 30
0.0
 11
381.0551284042
 21
582.1372965918
 31
0.0
  0
LINE
  5
249
330
1F
100
AcDbEntity
  8
0
  6
Continuous
 62
     7
370
    15
100
AcDbLine
 10
377.3551253762
 20
575.9372959481
 30
0.0
 11
377.6652632442
 21
575.9372959481
 31
0.0
  0
LINE
  5
24A
330
1F
100
AcDbEntity
  8
0
  6
Continuous
 62
     7
370
    15
100
AcDbLine
 10
380.6805132117
 20
575.9372959481
 30
0.0
 11
382.2551338163
 21
575.9372959481
 31
0.0
  0
LINE
  5
24B
330
1F
100
AcDbEntity
  8
0
  6
Continuous
 62
     7
370
    15
100
AcDbLine
 10
382.2551338163
 20
584.1372931943
 30
0.0
 11
382.2551338163
 21
608.1872979746
 31
0.0
  0
LINE
  5
24C
330
1F
100
AcDbEntity
  8
0
  6
Continuous
 62
     7
370
    15
100
AcDbLine
 10
382.2551338163
 20
614.9372967527
 30
0.0
 11
382.2551338163
 21
608.1872979746
 31
0.0
  0
LINE
  5
24D
330
1F
100
AcDbEntity
  8
0
  6
Continuous
 62
     7
370
    15
100
AcDbLine
 10
382.1551321235
 20
607.937297468
 30
0.0
 11
382.1551321235
 21
613.9372947262
 31
0.0
  0
LINE
  5
24E
330
1F
100
AcDbEntity
  8
0
  6
Continuous
 62
     7
370
    15
100
AcDbLine
 10
382.1551321235
 20
584.9372992859
 30
0.0
 11
382.1551321235
 21
590.9372965441
 31
0.0
  0
LINE
  5
24F
330
1F
100
AcDbEntity
  8
0
  6
Continuous
 62
     7
370
    15
100
AcDbLine
 10
382.2551338163
 20
598.9372978554
 30
0.0
 11
381.0551284042
 21
599.2588351117
 31
0.0
  0
LINE
  5
250
330
1F
100
AcDbEntity
  8
0
  6
Continuous
 62
     7
370
    15
100
AcDbLine
 10
381.0551284042
 20
600.2941119121
 30
0.0
 11
382.2551338163
 21
599.9725709305
 31
0.0
  0
LINE
  5
251
330
1F
100
AcDbEntity
  8
0
  6
Continuous
 62
     8
370
    15
100
AcDbLine
 10
382.5551239934
 20
608.1872979746
 30
0.0
 11
382.2551338163
 21
608.1872979746
 31
0.0
  0
ENDSEC
  0
SECTION
  2
OBJECTS
  0
DICTIONARY
  5
C
330
0
100
AcDbDictionary
281
     1
  3
ACAD_GROUP
350
D
  3
ACAD_LAYOUT
350
1A
  3
ACAD_MLINESTYLE
350
17
  3
ACAD_PLOTSETTINGS
350
19
  3
ACAD_PLOTSTYLENAME
350
E
  0
DICTIONARY
  5
D
102
{ACAD_REACTORS
330
C
102
}
330
C
100
AcDbDictionary
281
     1
  0
DICTIONARY
  5
1A
102
{ACAD_REACTORS
330
C
102
}
330
C
100
AcDbDictionary
281
     1
  3
Layout1
350
1E
  3
Layout2
350
26
  3
Model
350
22
  0
DICTIONARY
  5
17
102
{ACAD_REACTORS
330
C
102
}
330
C
100
AcDbDictionary
281
     1
  3
Standard
350
18
  0
DICTIONARY
  5
19
102
{ACAD_REACTORS
330
C
102
}
330
C
100
AcDbDictionary
281
     1
  0
ACDBDICTIONARYWDFLT
  5
E
102
{ACAD_REACTORS
330
C
102
}
330
C
100
AcDbDictionary
281
     1
  3
Normal
350
F
100
AcDbDictionaryWithDefault
340
F
  0
LAYOUT
  5
1E
102
{ACAD_REACTORS
330
1A
102
}
330
1A
100
AcDbPlotSettings
  1

  2
none_device
  4

  6

 40
0.0
 41
0.0
 42
0.0
 43
0.0
 44
0.0
 45
0.0
 46
0.0
 47
0.0
 48
0.0
 49
0.0
140
0.0
141
0.0
142
1.0
143
1.0
 70
   688
 72
     0
 73
     0
 74
     5
  7

 75
    16
147
1.0
148
0.0
149
0.0
100
AcDbLayout
  1
Layout1
 70
     1
 71
     1
 10
0.0
 20
0.0
 11
420.0
 21
297.0
 12
0.0
 22
0.0
 32
0.0
 14
1.0000000000E+20
 24
1.0000000000E+20
 34
1.0000000000E+20
 15
-1.0000000000E+20
 25
-1.0000000000E+20
 35
-1.0000000000E+20
146
0.0
 13
0.0
 23
0.0
 33
0.0
 16
1.0
 26
0.0
 36
0.0
 17
0.0
 27
1.0
 37
0.0
 76
     0
330
1B
  0
LAYOUT
  5
26
102
{ACAD_REACTORS
330
1A
102
}
330
1A
100
AcDbPlotSettings
  1

  2
none_device
  4

  6

 40
0.0
 41
0.0
 42
0.0
 43
0.0
 44
0.0
 45
0.0
 46
0.0
 47
0.0
 48
0.0
 49
0.0
140
0.0
141
0.0
142
1.0
143
1.0
 70
   688
 72
     0
 73
     0
 74
     5
  7

 75
    16
147
1.0
148
0.0
149
0.0
100
AcDbLayout
  1
Layout2
 70
     1
 71
     2
 10
0.0
 20
0.0
 11
0.0
 21
0.0
 12
0.0
 22
0.0
 32
0.0
 14
0.0
 24
0.0
 34
0.0
 15
0.0
 25
0.0
 35
0.0
146
0.0
 13
0.0
 23
0.0
 33
0.0
 16
1.0
 26
0.0
 36
0.0
 17
0.0
 27
1.0
 37
0.0
 76
     0
330
23
  0
LAYOUT
  5
22
102
{ACAD_REACTORS
330
1A
102
}
330
1A
100
AcDbPlotSettings
  1

  2
none_device
  4

  6

 40
0.0
 41
0.0
 42
0.0
 43
0.0
 44
0.0
 45
0.0
 46
0.0
 47
0.0
 48
0.0
 49
0.0
140
0.0
141
0.0
142
1.0
143
1.0
 70
  1712
 72
     0
 73
     0
 74
     0
  7

 75
     0
147
1.0
148
0.0
149
0.0
100
AcDbLayout
  1
Model
 70
     1
 71
     0
 10
0.0
 20
0.0
 11
840.0
 21
594.0
 12
0.0
 22
0.0
 32
0.0
 14
0.0
 24
0.0
 34
0.0
 15
840.0
 25
594.0
 35
0.0
146
0.0
 13
0.0
 23
0.0
 33
0.0
 16
1.0
 26
0.0
 36
0.0
 17
0.0
 27
1.0
 37
0.0
 76
     0
330
1F
331
29
  0
MLINESTYLE
  5
18
102
{ACAD_REACTORS
330
17
102
}
330
17
100
AcDbMlineStyle
  2
Standard
 70
     0
  3

 62
   256
 51
90.0
 52
90.0
 71
     2
 49
0.5
 62
   256
  6
BYLAYER
 49
-0.5
 62
   256
  6
BYLAYER
  0
ACDBPLACEHOLDER
  5
F
102
{ACAD_REACTORS
330
E
102
}
330
E
  0
ENDSEC
  0
EOF
