  0
SECTION
  2
HEADER
  9
$ACADVER
  1
AC1015
  9
$ACADMAINTVER
 70
     6
  9
$DWGCODEPAGE
  3
DOS932
  9
$INSBASE
 10
0.0
 20
0.0
 30
0.0
  9
$EXTMIN
 10
0.0
 20
0.0
 30
0.0
  9
$EXTMAX
 10
840.0
 20
594.0
 30
0.0
  9
$LIMMIN
 10
0.0
 20
0.0
  9
$LIMMAX
 10
840.0
 20
594.0
  9
$ORTHOMODE
 70
     0
  9
$REGENMODE
 70
     1
  9
$FILLMODE
 70
     1
  9
$QTEXTMODE
 70
     0
  9
$MIRRTEXT
 70
     1
  9
$LTSCALE
 40
2.0
  9
$ATTMODE
 70
     1
  9
$TEXTSIZE
 40
7.0
  9
$TRACEWID
 40
1.0
  9
$TEXTSTYLE
  7
Standard
  9
$CLAYER
  8
0
  9
$CELTYPE
  6
ByLayer
  9
$CECOLOR
 62
   256
  9
$CELTSCALE
 40
1.0
  9
$DISPSILH
 70
     0
  9
$DIMSCALE
 40
1.0
  9
$DIMASZ
 40
6.0
  9
$DIMEXO
 40
2.0
  9
$DIMDLI
 40
3.75
  9
$DIMRND
 40
0.0
  9
$DIMDLE
 40
0.0
  9
$DIMEXE
 40
2.0
  9
$DIMTP
 40
0.0
  9
$DIMTM
 40
0.0
  9
$DIMTXT
 40
7.0
  9
$DIMCEN
 40
2.5
  9
$DIMTSZ
 40
0.0
  9
$DIMTOL
 70
     0
  9
$DIMLIM
 70
     0
  9
$DIMTIH
 70
     1
  9
$DIMTOH
 70
     1
  9
$DIMSE1
 70
     0
  9
$DIMSE2
 70
     0
  9
$DIMTAD
 70
     1
  9
$DIMZIN
 70
     0
  9
$DIMBLK
  1

  9
$DIMASO
 70
     1
  9
$DIMSHO
 70
     1
  9
$DIMPOST
  1

  9
$DIMAPOST
  1

  9
$DIMALT
 70
     0
  9
$DIMALTD
 70
     3
  9
$DIMALTF
 40
0.0393700787
  9
$DIMLFAC
 40
1.0
  9
$DIMTOFL
 70
     1
  9
$DIMTVP
 40
0.0
  9
$DIMTIX
 70
     0
  9
$DIMSOXD
 70
     0
  9
$DIMSAH
 70
     0
  9
$DIMBLK1
  1

  9
$DIMBLK2
  1

  9
$DIMSTYLE
  2
ISO-25
  9
$DIMCLRD
 70
     0
  9
$DIMCLRE
 70
     0
  9
$DIMCLRT
 70
     0
  9
$DIMTFAC
 40
1.0
  9
$DIMGAP
 40
3.048
  9
$DIMJUST
 70
     0
  9
$DIMSD1
 70
     0
  9
$DIMSD2
 70
     0
  9
$DIMTOLJ
 70
     0
  9
$DIMTZIN
 70
     0
  9
$DIMALTZ
 70
     0
  9
$DIMALTTZ
 70
     0
  9
$DIMUPT
 70
     0
  9
$DIMDEC
 70
     1
  9
$DIMTDEC
 70
     1
  9
$DIMALTU
 70
     2
  9
$DIMALTTD
 70
     3
  9
$DIMTXSTY
  7
Standard
  9
$DIMAUNIT
 70
     0
  9
$DIMADEC
 70
     2
  9
$DIMALTRND
 40
0.0
  9
$DIMAZIN
 70
     0
  9
$DIMDSEP
 70
    44
  9
$DIMATFIT
 70
     3
  9
$DIMFRAC
 70
     0
  9
$DIMLDRBLK
  1

  9
$DIMLUNIT
 70
     2
  9
$DIMLWD
 70
    -2
  9
$DIMLWE
 70
    -2
  9
$DIMTMOVE
 70
     0
  9
$LUNITS
 70
     2
  9
$LUPREC
 70
     1
  9
$SKETCHINC
 40
1.0
  9
$FILLETRAD
 40
10.0
  9
$AUNITS
 70
     0
  9
$AUPREC
 70
     2
  9
$MENU
  1
.
  9
$ELEVATION
 40
0.0
  9
$PELEVATION
 40
0.0
  9
$THICKNESS
 40
0.0
  9
$LIMCHECK
 70
     0
  9
$CHAMFERA
 40
10.0
  9
$CHAMFERB
 40
10.0
  9
$CHAMFERC
 40
20.0
  9
$CHAMFERD
 40
0.0
  9
$SKPOLY
 70
     0
  9
$TDCREATE
 40
2460440.564294803
  9
$TDUCREATE
 40
2460440.189294803
  9
$TDUPDATE
 40
2460440.564294815
  9
$TDUUPDATE
 40
2460440.189294815
  9
$TDINDWG
 40
0.0000000116
  9
$TDUSRTIMER
 40
0.0000000116
  9
$USRTIMER
 70
     1
  9
$ANGBASE
 50
0.0
  9
$ANGDIR
 70
     0
  9
$PDMODE
 70
     0
  9
$PDSIZE
 40
-1.0
  9
$PLINEWID
 40
0.0
  9
$SPLFRAME
 70
     0
  9
$SPLINETYPE
 70
     6
  9
$SPLINESEGS
 70
     8
  9
$HANDSEED
  5
252
  9
$SURFTAB1
 70
     6
  9
$SURFTAB2
 70
     6
  9
$SURFTYPE
 70
     6
  9
$SURFU
 70
     6
  9
$SURFV
 70
     6
  9
$UCSBASE
  2

  9
$UCSNAME
  2

  9
$UCSORG
 10
0.0
 20
0.0
 30
0.0
  9
$UCSXDIR
 10
1.0
 20
0.0
 30
0.0
  9
$UCSYDIR
 10
0.0
 20
1.0
 30
0.0
  9
$UCSORTHOREF
  2

  9
$UCSORTHOVIEW
 70
     0
  9
$UCSORGTOP
 10
0.0
 20
0.0
 30
0.0
  9
$UCSORGBOTTOM
 10
0.0
 20
0.0
 30
0.0
  9
$UCSORGLEFT
 10
0.0
 20
0.0
 30
0.0
  9
$UCSORGRIGHT
 10
0.0
 20
0.0
 30
0.0
  9
$UCSORGFRONT
 10
0.0
 20
0.0
 30
0.0
  9
$UCSORGBACK
 10
0.0
 20
0.0
 30
0.0
  9
$PUCSBASE
  2

  9
$PUCSNAME
  2

  9
$PUCSORG
 10
0.0
 20
0.0
 30
0.0
  9
$PUCSXDIR
 10
1.0
 20
0.0
 30
0.0
  9
$PUCSYDIR
 10
0.0
 20
1.0
 30
0.0
  9
$PUCSORTHOREF
  2

  9
$PUCSORTHOVIEW
 70
     0
  9
$PUCSORGTOP
 10
0.0
 20
0.0
 30
0.0
  9
$PUCSORGBOTTOM
 10
0.0
 20
0.0
 30
0.0
  9
$PUCSORGLEFT
 10
0.0
 20
0.0
 30
0.0
  9
$PUCSORGRIGHT
 10
0.0
 20
0.0
 30
0.0
  9
$PUCSORGFRONT
 10
0.0
 20
0.0
 30
0.0
  9
$PUCSORGBACK
 10
0.0
 20
0.0
 30
0.0
  9
$USERI1
 70
     0
  9
$USERI2
 70
     0
  9
$USERI3
 70
     0
  9
$USERI4
 70
     0
  9
$USERI5
 70
     0
  9
$USERR1
 40
0.0
  9
$USERR2
 40
0.0
  9
$USERR3
 40
0.0
  9
$USERR4
 40
0.0
  9
$USERR5
 40
0.0
  9
$WORLDVIEW
 70
     1
  9
$SHADEDGE
 70
     3
  9
$SHADEDIF
 70
    70
  9
$TILEMODE
 70
     1
  9
$MAXACTVP
 70
    64
  9
$PINSBASE
 10
0.0
 20
0.0
 30
0.0
  9
$PLIMCHECK
 70
     0
  9
$PEXTMIN
 10
1.0000000000E+20
 20
1.0000000000E+20
 30
1.0000000000E+20
  9
$PEXTMAX
 10
-1.0000000000E+20
 20
-1.0000000000E+20
 30
-1.0000000000E+20
  9
$PLIMMIN
 10
0.0
 20
0.0
  9
$PLIMMAX
 10
420.0
 20
297.0
  9
$UNITMODE
 70
     0
  9
$VISRETAIN
 70
     1
  9
$PLINEGEN
 70
     0
  9
$PSLTSCALE
 70
     1
  9
$TREEDEPTH
 70
  3020
  9
$CMLSTYLE
  2
Standard
  9
$CMLJUST
 70
     0
  9
$CMLSCALE
 40
20.0
  9
$PROXYGRAPHICS
 70
     1
  9
$MEASUREMENT
 70
     1
  9
$CELWEIGHT
370
    -1
  9
$ENDCAPS
280
     0
  9
$JOINSTYLE
280
     0
  9
$LWDISPLAY
290
     1
  9
$INSUNITS
 70
     4
  9
$HYPERLINKBASE
  1

  9
$STYLESHEET
  1

  9
$XEDIT
290
     1
  9
$CEPSNTYPE
380
     0
  9
$PSTYLEMODE
290
     1
  9
$FINGERPRINTGUID
  2
{5A612A97-DCA9-44B4-B606-24048BD1877E}
  9
$VERSIONGUID
  2
{FAEB1C32-E019-11D5-929B-00C0DF256EC4}
  9
$EXTNAMES
290
     1
  9
$PSVPSCALE
 40
0.0
  9
$OLESTARTUP
290
     0
  0
ENDSEC
  0
SECTION
  2
CLASSES
  0
CLASS
  1
ACDBDICTIONARYWDFLT
  2
AcDbDictionaryWithDefault
  3
ObjectDBX Classes
 90
        0
280
     0
281
     0
  0
CLASS
  1
VISUALSTYLE
  2
AcDbVisualStyle
  3
ObjectDBX Classes
 90
     4095
280
     0
281
     0
  0
CLASS
  1
MATERIAL
  2
AcDbMaterial
  3
ObjectDBX Classes
 90
     1153
280
     0
281
     0
  0
CLASS
  1
ACDBPLACEHOLDER
  2
AcDbPlaceHolder
  3
ObjectDBX Classes
 90
        0
280
     0
281
     0
  0
CLASS
  1
LAYOUT
  2
AcDbLayout
  3
ObjectDBX Classes
 90
        0
280
     0
281
     0
  0
ENDSEC
  0
SECTION
  2
TABLES
  0
TABLE
  2
VPORT
  5
8
330
0
100
AcDbSymbolTable
 70
     1
  0
VPORT
  5
29
330
8
100
AcDbSymbolTableRecord
100
AcDbViewportTableRecord
  2
*Active
 70
     0
 10
0.0
 20
0.0
 11
1.0
 21
1.0
 12
420.0
 22
297.0
 13
0.0
 23
0.0
 14
10.0
 24
10.0
 15
10.0
 25
10.0
 16
0.0
 26
0.0
 36
1.0
 17
0.0
 27
0.0
 37
0.0
 40
594.0
 41
1.4141414141
 42
50.0
 43
0.0
 44
0.0
 50
0.0
 51
0.0
 71
     0
 72
  2000
 73
     1
 74
     3
 75
     0
 76
     0
 77
     0
 78
     0
281
     0
 65
     1
110
0.0
120
0.0
130
0.0
111
1.0
121
0.0
131
0.0
112
0.0
122
1.0
132
0.0
 79
     0
146
0.0
  0
ENDTAB
  0
TABLE
  2
LTYPE
  5
5
330
0
100
AcDbSymbolTable
 70
     6
  0
LTYPE
  5
14
330
5
100
AcDbSymbolTableRecord
100
AcDbLinetypeTableRecord
  2
ByBlock
 70
     0
  3

 72
    65
 73
     0
 40
0.0
  0
LTYPE
  5
15
330
5
100
AcDbSymbolTableRecord
100
AcDbLinetypeTableRecord
  2
ByLayer
 70
     0
  3

 72
    65
 73
     0
 40
0.0
  0
LTYPE
  5
16
330
5
100
AcDbSymbolTableRecord
100
AcDbLinetypeTableRecord
  2
Continuous
 70
     0
  3
Solid line
 72
    65
 73
     0
 40
0.0
  0
LTYPE
  5
3F
330
5
100
AcDbSymbolTableRecord
100
AcDbLinetypeTableRecord
  2
HIDDEN
 70
     0
  3
Hidden __ __ __ __ __ __ __ __ __ __ __ __ __ __
 72
    65
 73
     2
 40
1.905
 49
1.27
 74
     0
 49
-0.635
 74
     0
  0
LTYPE
  5
40
330
5
100
AcDbSymbolTableRecord
100
AcDbLinetypeTableRecord
  2
PHANTOM
 70
     0
  3
Phantom ______  __  __  ______  __  __  ______
 72
    65
 73
     6
 40
12.7
 49
6.35
 74
     0
 49
-1.27
 74
     0
 49
1.27
 74
     0
 49
-1.27
 74
     0
 49
1.27
 74
     0
 49
-1.27
 74
     0
  0
LTYPE
  5
41
330
5
100
AcDbSymbolTableRecord
100
AcDbLinetypeTableRecord
  2
CENTER
 70
     0
  3
Center ____ _ ____ _ ____ _ ____ _ ____ _ ____
 72
    65
 73
     4
 40
10.16
 49
6.35
 74
     0
 49
-1.27
 74
     0
 49
1.27
 74
     0
 49
-1.27
 74
     0
  0
LTYPE
  5
42
330
5
100
AcDbSymbolTableRecord
100
AcDbLinetypeTableRecord
  2
CENTERX2
 70
     0
  3
Center (2x) ________  __  ________  __  _____
 72
    65
 73
     4
 40
20.32
 49
12.7
 74
     0
 49
-2.54
 74
     0
 49
2.54
 74
     0
 49
-2.54
 74
     0
  0
LTYPE
  5
43
330
5
100
AcDbSymbolTableRecord
100
AcDbLinetypeTableRecord
  2
DOT2
 70
     0
  3
Dot (.5x) ........................................
 72
    65
 73
     2
 40
0.635
 49
0.0
 74
     0
 49
-0.635
 74
     0
  0
ENDTAB
  0
TABLE
  2
LAYER
  5
2
330
0
100
AcDbSymbolTable
 70
     1
  0
LAYER
  5
10
330
2
100
AcDbSymbolTableRecord
100
AcDbLayerTableRecord
  2
0
 70
     0
 62
     7
  6
Continuous
370
    -3
390
F
  0
ENDTAB
  0
TABLE
  2
STYLE
  5
3
330
0
100
AcDbSymbolTable
 70
     2
  0
STYLE
  5
11
330
3
100
AcDbSymbolTableRecord
100
AcDbTextStyleTableRecord
  2
Standard
 70
     0
 40
0.0
 41
1.0
 50
0.0
 71
     0
 42
2.5
  3
txt
  4
bigfont
  0
STYLE
  5
44
330
3
100
AcDbSymbolTableRecord
100
AcDbTextStyleTableRecord
  2
SLDTEXTSTYLE0
 70
     0
 40
0.0
 41
0.7
 50
0.0
 71
     0
 42
0.2
  3
TXT
  4
bigfont
  0
ENDTAB
  0
TABLE
  2
VIEW
  5
6
330
0
100
AcDbSymbolTable
 70
     0
  0
ENDTAB
  0
TABLE
  2
UCS
  5
7
330
0
100
AcDbSymbolTable
 70
     0
  0
ENDTAB
  0
TABLE
  2
APPID
  5
9
330
0
100
AcDbSymbolTable
 70
     1
  0
APPID
  5
12
330
9
100
AcDbSymbolTableRecord
100
AcDbRegAppTableRecord
  2
ACAD
 70
     0
  0
ENDTAB
  0
TABLE
  2
DIMSTYLE
  5
A
330
0
100
AcDbSymbolTable
 70
     1
100
AcDbDimStyleTable
  0
DIMSTYLE
105
27
330
A
100
AcDbSymbolTableRecord
100
AcDbDimStyleTableRecord
  2
ISO-25
 70
     0
 41
2.5
 42
0.625
 43
3.75
 44
1.25
 73
     0
 74
     0
 77
     1
 78
     8
140
2.5
141
2.5
143
0.0393700787
147
0.625
171
     3
172
     1
178
     0
271
     2
272
     2
274
     3
278
    44
283
     0
284
     8
340
11
  0
ENDTAB
  0
TABLE
  2
BLOCK_RECORD
  5
1
330
0
100
AcDbSymbolTable
 70
     1
  0
BLOCK_RECORD
  5
1F
330
1
100
AcDbSymbolTableRecord
100
AcDbBlockTableRecord
  2
*Model_Space
340
22
  0
BLOCK_RECORD
  5
1B
330
1
100
AcDbSymbolTableRecord
100
AcDbBlockTableRecord
  2
*Paper_Space
340
1E
  0
BLOCK_RECORD
  5
23
330
1
100
AcDbSymbolTableRecord
100
AcDbBlockTableRecord
  2
*Paper_Space0
340
26
  0
ENDTAB
  0
ENDSEC
  0
SECTION
  2
BLOCKS
  0
BLOCK
  5
20
330
1F
100
AcDbEntity
  8
0
100
AcDbBlockBegin
  2
*Model_Space
 70
     0
 10
0.0
 20
0.0
 30
0.0
  3
*Model_Space
  1

  0
ENDBLK
  5
21
330
1F
100
AcDbEntity
  8
0
100
AcDbBlockEnd
  0
BLOCK
  5
1C
330
1B
100
AcDbEntity
 67
     1
  8
0
100
AcDbBlockBegin
  2
*Paper_Space
 70
     0
 10
0.0
 20
0.0
 30
0.0
  3
*Paper_Space
  1

  0
ENDBLK
  5
1D
330
1B
100
AcDbEntity
 67
     1
  8
0
100
AcDbBlockEnd
  0
BLOCK
  5
24
330
23
100
AcDbEntity
  8
0
100
AcDbBlockBegin
  2
*Paper_Space0
 70
     0
 10
0.0
 20
0.0
 30
0.0
  3
*Paper_Space0
  1

  0
ENDBLK
  5
25
330
23
100
AcDbEntity
  8
0
100
AcDbBlockEnd
  0
ENDSEC
  0
SECTION
  2
ENTITIES
  0
MTEXT
  5
45
330
1F
100
AcDbEntity
  8
0
  6
Continuous
 62
     7
370
     0
100
AcDbMText
 10
194.5791932059
 20
505.060699861
 30
0.0
 40
7.0
 41
0.0
 71
     1
 72
     1
  1
CHB-501P
  7
SLDTEXTSTYLE0
 73
     1
 44
1.0
  0
LINE
  5
46
330
1F
100
AcDbEntity
  8
0
  6
Continuous
 62
     7
370
    15
100
AcDbLine
 10
368.3033978902
 20
191.8619953737
 30
0.0
 11
368.403399583
 21
191.8619953737
 31
0.0
  0
LINE
  5
47
330
1F
100
AcDbEntity
  8
0
  6
Continuous
 62
     7
370
    15
100
AcDbLine
 10
368.403399583
 20
197.8619956587
 30
0.0
 11
368.3033978902
 21
197.8619956587
 31
0.0
  0
LINE
  5
48
330
1F
100
AcDbEntity
  8
0
  6
Continuous
 62
     7
370
    15
100
AcDbLine
 10
368.3033978902
 20
201.8619958487
 30
0.0
 11
368.403399583
 21
201.8619958487
 31
0.0
  0
LINE
  5
49
330
1F
100
AcDbEntity
  8
0
  6
Continuous
 62
     7
370
    15
100
AcDbLine
 10
368.403399583
 20
207.8619961337
 30
0.0
 11
368.3033978902
 21
207.8619961337
 31
0.0
  0
LINE
  5
4A
330
1F
100
AcDbEntity
  8
0
  6
Continuous
 62
     7
370
    15
100
AcDbLine
 10
369.6033900939
 20
211.3619957761
 30
0.0
 11
368.403399583
 21
211.3619957761
 31
0.0
  0
LINE
  5
4B
330
1F
100
AcDbEntity
  8
0
  6
Continuous
 62
     7
370
    15
100
AcDbLine
 10
368.403399583
 20
188.3619957314
 30
0.0
 11
369.6033900939
 21
188.3619957314
 31
0.0
  0
LINE
  5
4C
330
1F
100
AcDbEntity
  8
0
  6
Continuous
 62
     7
370
    15
100
AcDbLine
 10
681.1034029685
 20
105.8619989724
 30
0.0
 11
681.1034029685
 21
140.8619953961
 31
0.0
  0
LINE
  5
4D
330
1F
100
AcDbEntity
  8
0
  6
Continuous
 62
     7
370
    15
100
AcDbLine
 10
681.1034029685
 20
258.8619961113
 30
0.0
 11
681.1034029685
 21
293.8619925351
 31
0.0
  0
LINE
  5
4E
330
1F
100
AcDbEntity
  8
0
  6
Continuous
 62
     7
370
    15
100
AcDbLine
 10
360.4985868894
 20
203.7619956479
 30
0.0
 11
360.4985868894
 21
195.1619958215
 31
0.0
  0
LINE
  5
4F
330
1F
100
AcDbEntity
  8
0
  6
Continuous
 62
     7
370
    15
100
AcDbLine
 10
361.1033952199
 20
192.6619958774
 30
0.0
 11
361.1033952199
 21
191.8622496248
 31
0.0
  0
LINE
  5
50
330
1F
100
AcDbEntity
  8
0
  6
Continuous
 62
     7
370
    15
100
AcDbLine
 10
361.1033952199
 20
207.8617418826
 30
0.0
 11
361.1033952199
 21
207.06199563
 31
0.0
  0
ARC
  5
51
330
1F
100
AcDbEntity
  8
0
  6
Continuous
 62
     7
370
    15
100
AcDbCircle
 10
364.7033960544
 20
205.0548528966
 30
0.0
 40
3.807142857143219
100
AcDbArc
 50
77.9663271603
 51
90.0
  0
ARC
  5
52
330
1F
100
AcDbEntity
  8
0
  6
Continuous
 62
     7
370
    15
100
AcDbCircle
 10
364.7033960544
 20
205.0548528966
 30
0.0
 40
3.807142857143245
100
AcDbArc
 50
90.0
 51
125.3002484399
  0
LINE
  5
53
330
1F
100
AcDbEntity
  8
0
  6
Continuous
 62
     7
370
    15
100
AcDbLine
 10
362.5033891164
 20
208.1619956241
 30
0.0
 11
362.5033891164
 21
207.8619961337
 31
0.0
  0
LINE
  5
54
330
1F
100
AcDbEntity
  8
0
  6
Continuous
 62
     7
370
    15
100
AcDbLine
 10
362.6033908092
 20
191.4619960532
 30
0.0
 11
362.6033908092
 21
191.0619958014
 31
0.0
  0
ARC
  5
55
330
1F
100
AcDbEntity
  8
0
  6
Continuous
 62
     7
370
    15
100
AcDbCircle
 10
362.8033960544
 20
191.8619957538
 30
0.0
 40
0.4000000000007731
100
AcDbArc
 50
270.0
 51
0.0
  0
LINE
  5
56
330
1F
100
AcDbEntity
  8
0
  6
Continuous
 62
     7
370
    15
100
AcDbLine
 10
363.2034009658
 20
207.06199563
 30
0.0
 11
363.2034009658
 21
206.6119959288
 31
0.0
  0
LINE
  5
57
330
1F
100
AcDbEntity
  8
0
  6
Continuous
 62
     7
370
    15
100
AcDbLine
 10
363.2034009658
 20
193.1119955786
 30
0.0
 11
363.2034009658
 21
192.6619958774
 31
0.0
  0
SPLINE
  5
58
330
1F
100
AcDbEntity
  8
0
  6
Continuous
 62
     7
370
    15
100
AcDbSpline
210
0.0
220
0.0
230
1.0
 70
     8
 71
     3
 72
    11
 73
     7
 74
     0
 42
0.00000001
 43
0.00000001
 40
0.0
 40
0.0
 40
0.0
 40
0.0
 40
0.2262236325897269
 40
0.4679485216363518
 40
0.7254888709054915
 40
1.0
 40
1.0
 40
1.0
 40
1.0
 10
365.9239059649577
 20
208.0924304843647
 30
0.0
 10
365.9267330674957
 20
208.0695312997957
 30
0.0
 10
365.9325809908006
 20
208.0221638367102
 30
0.0
 10
365.9493407193063
 20
207.6973811804562
 30
0.0
 10
365.9629422799557
 20
207.1968819866245
 30
0.0
 10
365.9634761965548
 20
206.7730607424419
 30
0.0
 10
365.9637516699901
 20
206.5543908335967
 30
0.0
  0
SPLINE
  5
59
330
1F
100
AcDbEntity
  8
0
  6
Continuous
 62
     7
370
    15
100
AcDbSpline
210
0.0
220
0.0
230
1.0
 70
     8
 71
     3
 72
    12
 73
     8
 74
     0
 42
0.00000001
 43
0.00000001
 40
0.0
 40
0.0
 40
0.0
 40
0.0
 40
0.2489433810545054
 40
0.4822897574529931
 40
0.6998115288059334
 40
0.9035368986525243
 40
1.0
 40
1.0
 40
1.0
 40
1.0
 10
365.9637516699901
 20
192.995760002057
 30
0.0
 10
365.962325794068
 20
192.8584254017621
 30
0.0
 10
365.9595633773701
 20
192.592360601061
 30
0.0
 10
365.9486624143111
 20
192.2565586469322
 30
0.0
 10
365.9461521080437
 20
192.023382588097
 30
0.0
 10
365.95094126572
 20
191.9032765001956
 30
0.0
 10
365.9773717681733
 20
191.9019300813753
 30
0.0
 10
365.9858649932018
 20
191.9014974207384
 30
0.0
  0
LINE
  5
5A
330
1F
100
AcDbEntity
  8
0
  6
Continuous
 62
     7
370
    15
100
AcDbLine
 10
365.9629023038
 20
206.6043907487
 30
0.0
 11
365.9629023038
 21
192.945760087
 31
0.0
  0
LINE
  5
5B
330
1F
100
AcDbEntity
  8
0
  6
Continuous
 62
     7
370
    15
100
AcDbLine
 10
364.4392883741
 20
210.5422791735
 30
0.0
 11
365.9266477786
 21
208.062131767
 31
0.0
  0
LINE
  5
5C
330
1F
100
AcDbEntity
  8
0
  6
Continuous
 62
     7
370
    15
100
AcDbLine
 10
368.403399583
 20
209.7652413592
 30
0.0
 11
367.0121079646
 21
212.0852050082
 31
0.0
  0
LINE
  5
5D
330
1F
100
AcDbEntity
  8
0
  6
Continuous
 62
     7
370
    15
100
AcDbLine
 10
365.9911400043
 20
191.7694116653
 30
0.0
 11
364.4220626317
 21
189.1529931397
 31
0.0
  0
LINE
  5
5E
330
1F
100
AcDbEntity
  8
0
  6
Continuous
 62
     7
370
    15
100
AcDbLine
 10
366.9948822223
 20
187.610067305
 30
0.0
 11
368.403399583
 21
189.9587501482
 31
0.0
  0
LINE
  5
5F
330
1F
100
AcDbEntity
  8
0
  6
Continuous
 62
     7
370
    15
100
AcDbLine
 10
367.0320010148
 20
212.0496964724
 30
0.0
 11
366.9420427047
 21
212.1634836019
 31
0.0
  0
SPLINE
  5
60
330
1F
100
AcDbEntity
  8
0
  6
Continuous
 62
     7
370
    15
100
AcDbSpline
210
0.0
220
0.0
230
1.0
 70
     8
 71
     3
 72
    20
 73
    16
 74
     0
 42
0.00000001
 43
0.00000001
 40
0.0
 40
0.0
 40
0.0
 40
0.0
 40
0.0337795030354787
 40
0.1101057769667599
 40
0.1739290778953664
 40
0.2252747011104207
 40
0.2665371383718143
 40
0.3037733648558273
 40
0.3388589648229627
 40
0.3726389433837576
 40
0.4139176712929965
 40
0.6259828174977032
 40
0.8390272844879489
 40
0.9659462446907114
 40
1.0
 40
1.0
 40
1.0
 40
1.0
 10
366.8297326527706
 20
212.3055531353457
 30
0.0
 10
366.7890773498232
 20
212.3617386893127
 30
0.0
 10
366.6565596004019
 20
212.5448779755052
 30
0.0
 10
366.3466896661824
 20
212.7220511193035
 30
0.0
 10
365.9594157137564
 20
212.8450100458226
 30
0.0
 10
365.5895674684427
 20
212.8597974488117
 30
0.0
 10
365.255251279691
 20
212.8092093408764
 30
0.0
 10
364.9807750688777
 20
212.7081542688487
 30
0.0
 10
364.7532607676317
 20
212.5734495321707
 30
0.0
 10
364.5472448777899
 20
212.3972599196935
 30
0.0
 10
364.202675652237
 20
211.9547822894025
 30
0.0
 10
364.0216277721052
 20
211.2680984679733
 30
0.0
 10
363.8718131332061
 20
210.0872671284012
 30
0.0
 10
363.8166954039098
 20
209.1826236677653
 30
0.0
 10
363.8101338367459
 20
208.7680357400004
 30
0.0
 10
363.8087457381359
 20
208.6803297222359
 30
0.0
  0
SPLINE
  5
61
330
1F
100
AcDbEntity
  8
0
  6
Continuous
 62
     7
370
    15
100
AcDbSpline
210
0.0
220
0.0
230
1.0
 70
     8
 71
     3
 72
    19
 73
    15
 74
     0
 42
0.00000001
 43
0.00000001
 40
0.0
 40
0.0
 40
0.0
 40
0.0
 40
0.0102737072591294
 40
0.1295969162292759
 40
0.3268123458649628
 40
0.5525079253641859
 40
0.585853198266546
 40
0.6186007254317911
 40
0.6529065940735373
 40
0.6960059810056629
 40
0.7523135027976446
 40
0.8223141371033088
 40
0.9054608643355189
 40
1.0
 40
1.0
 40
1.0
 40
1.0
 10
363.8058996163478
 20
191.0619958013994
 30
0.0
 10
363.8062227986456
 20
191.0347968320125
 30
0.0
 10
363.8102995577074
 20
190.6916974552981
 30
0.0
 10
363.8500874510141
 20
189.8717073029957
 30
0.0
 10
363.9850805359626
 20
188.6492801886585
 30
0.0
 10
364.075470615645
 20
188.005909465272
 30
0.0
 10
364.4263618576665
 20
187.4658178033528
 30
0.0
 10
364.5955836281569
 20
187.2779693146073
 30
0.0
 10
364.8323018710776
 20
187.1014976609072
 30
0.0
 10
365.1459234001521
 20
186.9480124107693
 30
0.0
 10
365.5494166105451
 20
186.8462330738848
 30
0.0
 10
366.0352698264352
 20
186.8693937002319
 30
0.0
 10
366.5650370852732
 20
187.0797173167732
 30
0.0
 10
366.8302562728284
 20
187.4015366941117
 30
0.0
 10
366.9713681899181
 20
187.5727631793124
 30
0.0
  0
LINE
  5
62
330
1F
100
AcDbEntity
  8
0
  6
Continuous
 62
     7
370
    15
100
AcDbLine
 10
681.1034029685
 20
69.8620005221
 30
0.0
 11
681.1034029685
 21
104.8619969458
 31
0.0
  0
LINE
  5
63
330
1F
100
AcDbEntity
  8
0
  6
Continuous
 62
     7
370
    15
100
AcDbLine
 10
681.1034029685
 20
294.8619945616
 30
0.0
 11
681.1034029685
 21
329.8619909853
 31
0.0
  0
LINE
  5
64
330
1F
100
AcDbEntity
  8
0
  6
Continuous
 62
     7
370
    15
100
AcDbLine
 10
678.1033968888
 20
104.8619969458
 30
0.0
 11
678.1033968888
 21
105.8619989724
 31
0.0
  0
LINE
  5
65
330
1F
100
AcDbEntity
  8
0
  6
Continuous
 62
     7
370
    15
100
AcDbLine
 10
678.1033968888
 20
140.8619953961
 30
0.0
 11
678.1033968888
 21
141.8619974226
 31
0.0
  0
LINE
  5
66
330
1F
100
AcDbEntity
  8
0
  6
Continuous
 62
     7
370
    15
100
AcDbLine
 10
673.1034016572
 20
141.8619974226
 30
0.0
 11
673.1034016572
 21
140.8619953961
 31
0.0
  0
LINE
  5
67
330
1F
100
AcDbEntity
  8
0
  6
Continuous
 62
     7
370
    15
100
AcDbLine
 10
673.1034016572
 20
105.8619989724
 30
0.0
 11
673.1034016572
 21
104.8619969458
 31
0.0
  0
LINE
  5
68
330
1F
100
AcDbEntity
  8
0
  6
Continuous
 62
     7
370
    15
100
AcDbLine
 10
673.1034016572
 20
294.8619945616
 30
0.0
 11
673.1034016572
 21
293.8619925351
 31
0.0
  0
LINE
  5
69
330
1F
100
AcDbEntity
  8
0
  6
Continuous
 62
     7
370
    15
100
AcDbLine
 10
673.1034016572
 20
258.8619961113
 30
0.0
 11
673.1034016572
 21
257.8619940848
 31
0.0
  0
LINE
  5
6A
330
1F
100
AcDbEntity
  8
0
  6
Continuous
 62
     7
370
    15
100
AcDbLine
 10
678.1033968888
 20
257.8619940848
 30
0.0
 11
678.1033968888
 21
258.8619961113
 31
0.0
  0
LINE
  5
6B
330
1F
100
AcDbEntity
  8
0
  6
Continuous
 62
     7
370
    15
100
AcDbLine
 10
678.1033968888
 20
293.8619925351
 30
0.0
 11
678.1033968888
 21
294.8619945616
 31
0.0
  0
LINE
  5
6C
330
1F
100
AcDbEntity
  8
0
  6
Continuous
 62
     7
370
    15
100
AcDbLine
 10
361.3033986055
 20
206.6119959288
 30
0.0
 11
361.3033986055
 21
206.3191848517
 31
0.0
  0
LINE
  5
6D
330
1F
100
AcDbEntity
  8
0
  6
Continuous
 62
     7
370
    15
100
AcDbLine
 10
361.3033986055
 20
193.4048066557
 30
0.0
 11
361.3033986055
 21
193.1119955786
 31
0.0
  0
LINE
  5
6E
330
1F
100
AcDbEntity
  8
0
  6
Continuous
 62
     7
370
    15
100
AcDbLine
 10
654.6034014188
 20
64.8619903893
 30
0.0
 11
654.6034014188
 21
49.8619897933
 31
0.0
  0
LINE
  5
6F
330
1F
100
AcDbEntity
  8
0
  6
Continuous
 62
     7
370
    15
100
AcDbLine
 10
654.6034014188
 20
64.8619903893
 30
0.0
 11
669.6034020148
 21
64.8619903893
 31
0.0
  0
ARC
  5
70
330
1F
100
AcDbEntity
  8
0
  6
Continuous
 62
     7
370
    15
100
AcDbCircle
 10
654.6033960544
 20
64.8619957537
 30
0.0
 40
15.0
100
AcDbArc
 50
270.0
 51
0.0
  0
LINE
  5
71
330
1F
100
AcDbEntity
  8
0
  6
Continuous
 62
     7
370
    15
100
AcDbLine
 10
384.60339069
 20
49.8619897933
 30
0.0
 11
654.6034014188
 21
49.8619897933
 31
0.0
  0
LINE
  5
72
330
1F
100
AcDbEntity
  8
0
  6
Continuous
 62
     7
370
    15
100
AcDbLine
 10
384.60339069
 20
49.8619897933
 30
0.0
 11
384.60339069
 21
64.8619903893
 31
0.0
  0
LINE
  5
73
330
1F
100
AcDbEntity
  8
0
  6
Continuous
 62
     7
370
    15
100
AcDbLine
 10
384.60339069
 20
64.8619903893
 30
0.0
 11
654.6034014188
 21
64.8619903893
 31
0.0
  0
LINE
  5
74
330
1F
100
AcDbEntity
  8
0
  6
Continuous
 62
     7
370
    15
100
AcDbLine
 10
654.6034014188
 20
64.8619903893
 30
0.0
 11
654.6034014188
 21
334.8620011181
 31
0.0
  0
LINE
  5
75
330
1F
100
AcDbEntity
  8
0
  6
Continuous
 62
     7
370
    15
100
AcDbLine
 10
669.6034020148
 20
334.8620011181
 30
0.0
 11
654.6034014188
 21
334.8620011181
 31
0.0
  0
LINE
  5
76
330
1F
100
AcDbEntity
  8
0
  6
Continuous
 62
     7
370
    15
100
AcDbLine
 10
669.6034020148
 20
64.8619903893
 30
0.0
 11
669.6034020148
 21
334.8620011181
 31
0.0
  0
LINE
  5
77
330
1F
100
AcDbEntity
  8
0
  6
Continuous
 62
     7
370
    15
100
AcDbLine
 10
389.6034008227
 20
329.8619909853
 30
0.0
 11
649.603391286
 21
329.8619909853
 31
0.0
  0
LINE
  5
78
330
1F
100
AcDbEntity
  8
0
  6
Continuous
 62
     7
370
    15
100
AcDbLine
 10
389.6034008227
 20
69.8620005221
 30
0.0
 11
389.6034008227
 21
329.8619909853
 31
0.0
  0
LINE
  5
79
330
1F
100
AcDbEntity
  8
0
  6
Continuous
 62
     7
370
    15
100
AcDbLine
 10
649.603391286
 20
69.8620005221
 30
0.0
 11
389.6034008227
 21
69.8620005221
 31
0.0
  0
LINE
  5
7A
330
1F
100
AcDbEntity
  8
0
  6
Continuous
 62
     7
370
    15
100
AcDbLine
 10
649.603391286
 20
69.8620005221
 30
0.0
 11
649.603391286
 21
329.8619909853
 31
0.0
  0
LINE
  5
7B
330
1F
100
AcDbEntity
  8
0
  6
Continuous
 62
     7
370
    15
100
AcDbLine
 10
384.60339069
 20
64.8619903893
 30
0.0
 11
384.60339069
 21
334.8620011181
 31
0.0
  0
LINE
  5
7C
330
1F
100
AcDbEntity
  8
0
  6
Continuous
 62
     7
370
    15
100
AcDbLine
 10
384.60339069
 20
334.8620011181
 30
0.0
 11
654.6034014188
 21
334.8620011181
 31
0.0
  0
ARC
  5
7D
330
1F
100
AcDbEntity
  8
0
  6
Continuous
 62
     7
370
    15
100
AcDbCircle
 10
654.6033960544
 20
334.8619957537
 30
0.0
 40
15.0
100
AcDbArc
 50
0.0
 51
90.0
  0
LINE
  5
7E
330
1F
100
AcDbEntity
  8
0
  6
Continuous
 62
     7
370
    15
100
AcDbLine
 10
654.6034014188
 20
349.8620017142
 30
0.0
 11
654.6034014188
 21
334.8620011181
 31
0.0
  0
ARC
  5
7F
330
1F
100
AcDbEntity
  8
0
  6
Continuous
 62
     7
370
    15
100
AcDbCircle
 10
384.6033960544
 20
64.8619957537
 30
0.0
 40
15.0
100
AcDbArc
 50
180.0
 51
270.0
  0
LINE
  5
80
330
1F
100
AcDbEntity
  8
0
  6
Continuous
 62
     7
370
    15
100
AcDbLine
 10
369.6033900939
 20
64.8619903893
 30
0.0
 11
384.60339069
 21
64.8619903893
 31
0.0
  0
LINE
  5
81
330
1F
100
AcDbEntity
  8
0
  6
Continuous
 62
     7
370
    15
100
AcDbLine
 10
384.60339069
 20
334.8620011181
 30
0.0
 11
384.60339069
 21
349.8620017142
 31
0.0
  0
LINE
  5
82
330
1F
100
AcDbEntity
  8
0
  6
Continuous
 62
     7
370
    15
100
AcDbLine
 10
384.60339069
 20
349.8620017142
 30
0.0
 11
654.6034014188
 21
349.8620017142
 31
0.0
  0
LINE
  5
83
330
1F
100
AcDbEntity
  8
0
  6
Continuous
 62
     7
370
    15
100
AcDbLine
 10
369.6033900939
 20
189.8745036394
 30
0.0
 11
369.6033900939
 21
64.8619903893
 31
0.0
  0
LINE
  5
84
330
1F
100
AcDbEntity
  8
0
  6
Continuous
 62
     7
370
    15
100
AcDbLine
 10
369.6033900939
 20
209.849487868
 30
0.0
 11
369.6033900939
 21
334.8620011181
 31
0.0
  0
LINE
  5
85
330
1F
100
AcDbEntity
  8
0
  6
Continuous
 62
     7
370
    15
100
AcDbLine
 10
369.6033900939
 20
334.8620011181
 30
0.0
 11
384.60339069
 21
334.8620011181
 31
0.0
  0
ARC
  5
86
330
1F
100
AcDbEntity
  8
0
  6
Continuous
 62
     7
370
    15
100
AcDbCircle
 10
384.6033960544
 20
334.8619957537
 30
0.0
 40
15.0
100
AcDbArc
 50
90.0
 51
180.0
  0
LINE
  5
87
330
1F
100
AcDbEntity
  8
0
  6
Continuous
 62
     7
370
    15
100
AcDbLine
 10
368.403399583
 20
210.8964788438
 30
0.0
 11
369.6033900939
 21
210.8964788438
 31
0.0
  0
LINE
  5
88
330
1F
100
AcDbEntity
  8
0
  6
Continuous
 62
     7
370
    15
100
AcDbLine
 10
368.403399583
 20
188.8275126637
 30
0.0
 11
369.6033900939
 21
188.8275126637
 31
0.0
  0
LINE
  5
89
330
1F
100
AcDbEntity
  8
0
  6
Continuous
 62
     7
370
    15
100
AcDbLine
 10
368.403399583
 20
188.8275126637
 30
0.0
 11
368.403399583
 21
210.8964788438
 31
0.0
  0
LINE
  5
8A
330
1F
100
AcDbEntity
  8
0
  6
Continuous
 62
     7
370
    15
100
AcDbLine
 10
369.6033900939
 20
209.849487868
 30
0.0
 11
369.6033900939
 21
189.8745036394
 31
0.0
  0
LINE
  5
8B
330
1F
100
AcDbEntity
  8
0
  6
Continuous
 62
     7
370
    15
100
AcDbLine
 10
368.3033978902
 20
191.8619953737
 30
0.0
 11
368.3033978902
 21
197.8619956587
 31
0.0
  0
LINE
  5
8C
330
1F
100
AcDbEntity
  8
0
  6
Continuous
 62
     7
370
    15
100
AcDbLine
 10
368.3033978902
 20
204.861995642
 30
0.0
 11
368.3033978902
 21
207.8619961337
 31
0.0
  0
LINE
  5
8D
330
1F
100
AcDbEntity
  8
0
  6
Continuous
 62
     7
370
    15
100
AcDbLine
 10
368.3033978902
 20
201.8619958487
 30
0.0
 11
368.3033978902
 21
204.861995642
 31
0.0
  0
LINE
  5
8E
330
1F
100
AcDbEntity
  8
0
  6
Continuous
 62
     7
370
    15
100
AcDbLine
 10
368.403399583
 20
210.8964788438
 30
0.0
 11
368.403399583
 21
211.3619957761
 31
0.0
  0
LINE
  5
8F
330
1F
100
AcDbEntity
  8
0
  6
Continuous
 62
     7
370
    15
100
AcDbLine
 10
368.403399583
 20
188.3619957314
 30
0.0
 11
368.403399583
 21
188.8275126637
 31
0.0
  0
LINE
  5
90
330
1F
100
AcDbEntity
  8
0
  6
Continuous
 62
     7
370
    15
100
AcDbLine
 10
670.5047583543
 20
140.8619953961
 30
0.0
 11
670.5047583543
 21
105.8619989724
 31
0.0
  0
LINE
  5
91
330
1F
100
AcDbEntity
  8
0
  6
Continuous
 62
     7
370
    15
100
AcDbLine
 10
670.5047583543
 20
140.8619953961
 30
0.0
 11
681.1034029685
 21
140.8619953961
 31
0.0
  0
LINE
  5
92
330
1F
100
AcDbEntity
  8
0
  6
Continuous
 62
     7
370
    15
100
AcDbLine
 10
670.5047583543
 20
105.8619989724
 30
0.0
 11
681.1034029685
 21
105.8619989724
 31
0.0
  0
LINE
  5
93
330
1F
100
AcDbEntity
  8
0
  6
Continuous
 62
     7
370
    15
100
AcDbLine
 10
670.5047583543
 20
258.8619961113
 30
0.0
 11
681.1034029685
 21
258.8619961113
 31
0.0
  0
LINE
  5
94
330
1F
100
AcDbEntity
  8
0
  6
Continuous
 62
     7
370
    15
100
AcDbLine
 10
670.5047583543
 20
293.8619925351
 30
0.0
 11
670.5047583543
 21
258.8619961113
 31
0.0
  0
LINE
  5
95
330
1F
100
AcDbEntity
  8
0
  6
Continuous
 62
     7
370
    15
100
AcDbLine
 10
670.5047583543
 20
293.8619925351
 30
0.0
 11
681.1034029685
 21
293.8619925351
 31
0.0
  0
LINE
  5
96
330
1F
100
AcDbEntity
  8
0
  6
Continuous
 62
     7
370
    15
100
AcDbLine
 10
670.0412428342
 20
140.8619953961
 30
0.0
 11
670.0412428342
 21
105.8619989724
 31
0.0
  0
LINE
  5
97
330
1F
100
AcDbEntity
  8
0
  6
Continuous
 62
     7
370
    15
100
AcDbLine
 10
670.0412428342
 20
140.8619953961
 30
0.0
 11
670.5047583543
 21
140.8619953961
 31
0.0
  0
LINE
  5
98
330
1F
100
AcDbEntity
  8
0
  6
Continuous
 62
     7
370
    15
100
AcDbLine
 10
670.0412428342
 20
105.8619989724
 30
0.0
 11
670.5047583543
 21
105.8619989724
 31
0.0
  0
LINE
  5
99
330
1F
100
AcDbEntity
  8
0
  6
Continuous
 62
     7
370
    15
100
AcDbLine
 10
670.0412428342
 20
293.8619925351
 30
0.0
 11
670.0412428342
 21
258.8619961113
 31
0.0
  0
LINE
  5
9A
330
1F
100
AcDbEntity
  8
0
  6
Continuous
 62
     7
370
    15
100
AcDbLine
 10
670.0412428342
 20
293.8619925351
 30
0.0
 11
670.5047583543
 21
293.8619925351
 31
0.0
  0
LINE
  5
9B
330
1F
100
AcDbEntity
  8
0
  6
Continuous
 62
     7
370
    15
100
AcDbLine
 10
670.0412428342
 20
258.8619961113
 30
0.0
 11
670.5047583543
 21
258.8619961113
 31
0.0
  0
LINE
  5
9C
330
1F
100
AcDbEntity
  8
0
  6
Continuous
 62
     7
370
    15
100
AcDbLine
 10
669.6034020148
 20
140.8619953961
 30
0.0
 11
670.0412428342
 21
140.8619953961
 31
0.0
  0
LINE
  5
9D
330
1F
100
AcDbEntity
  8
0
  6
Continuous
 62
     7
370
    15
100
AcDbLine
 10
669.6034020148
 20
105.8619989724
 30
0.0
 11
670.0412428342
 21
105.8619989724
 31
0.0
  0
LINE
  5
9E
330
1F
100
AcDbEntity
  8
0
  6
Continuous
 62
     7
370
    15
100
AcDbLine
 10
669.6034020148
 20
293.8619925351
 30
0.0
 11
670.0412428342
 21
293.8619925351
 31
0.0
  0
LINE
  5
9F
330
1F
100
AcDbEntity
  8
0
  6
Continuous
 62
     7
370
    15
100
AcDbLine
 10
669.6034020148
 20
258.8619961113
 30
0.0
 11
670.0412428342
 21
258.8619961113
 31
0.0
  0
ARC
  5
A0
330
1F
100
AcDbEntity
  8
0
  6
Continuous
 62
     7
370
    15
100
AcDbCircle
 10
362.426057744
 20
205.2731878539
 30
0.0
 40
1.097787277143248
100
AcDbArc
 50
97.3332226099
 51
185.8133219334
  0
LINE
  5
A1
330
1F
100
AcDbEntity
  8
0
  6
Continuous
 62
     7
370
    15
100
AcDbLine
 10
362.2859364711
 20
206.3619958878
 30
0.0
 11
365.8293729983
 21
206.3619958878
 31
0.0
  0
LINE
  5
A2
330
1F
100
AcDbEntity
  8
0
  6
Continuous
 62
     7
370
    15
100
AcDbLine
 10
365.8293729983
 20
206.3619958878
 30
0.0
 11
365.8293729983
 21
193.3619956196
 31
0.0
  0
LINE
  5
A3
330
1F
100
AcDbEntity
  8
0
  6
Continuous
 62
     7
370
    15
100
AcDbLine
 10
365.8293729983
 20
193.3619956196
 30
0.0
 11
362.2859364711
 21
193.3619956196
 31
0.0
  0
ARC
  5
A4
330
1F
100
AcDbEntity
  8
0
  6
Continuous
 62
     7
370
    15
100
AcDbCircle
 10
362.426057744
 20
194.4508036535
 30
0.0
 40
1.097787277143248
100
AcDbArc
 50
174.1866780666
 51
262.6667773901
  0
LINE
  5
A5
330
1F
100
AcDbEntity
  8
0
  6
Continuous
 62
     7
370
    15
100
AcDbLine
 10
361.3339161836
 20
205.161995598
 30
0.0
 11
361.3339161836
 21
194.5619959094
 31
0.0
  0
LINE
  5
A6
330
1F
100
AcDbEntity
  8
0
  6
Continuous
 62
     7
370
    15
100
AcDbLine
 10
362.2859364711
 20
193.3619956196
 30
0.0
 11
361.5554219447
 21
193.3619956196
 31
0.0
  0
ARC
  5
A7
330
1F
100
AcDbEntity
  8
0
  6
Continuous
 62
     7
370
    15
100
AcDbCircle
 10
361.6955505122
 20
194.4508094406
 30
0.0
 40
1.097793948007165
100
AcDbArc
 50
174.1870171141
 51
262.6664383425
  0
LINE
  5
A8
330
1F
100
AcDbEntity
  8
0
  6
Continuous
 62
     7
370
    15
100
AcDbLine
 10
360.6034016572
 20
194.5619959094
 30
0.0
 11
361.3339161836
 21
194.5619959094
 31
0.0
  0
LINE
  5
A9
330
1F
100
AcDbEntity
  8
0
  6
Continuous
 62
     7
370
    15
100
AcDbLine
 10
361.5554219447
 20
206.3619958878
 30
0.0
 11
362.2859364711
 21
206.3619958878
 31
0.0
  0
LINE
  5
AA
330
1F
100
AcDbEntity
  8
0
  6
Continuous
 62
     7
370
    15
100
AcDbLine
 10
361.3339161836
 20
205.161995598
 30
0.0
 11
360.6034016572
 21
205.161995598
 31
0.0
  0
ARC
  5
AB
330
1F
100
AcDbEntity
  8
0
  6
Continuous
 62
     7
370
    15
100
AcDbCircle
 10
361.6955505122
 20
205.2731820668
 30
0.0
 40
1.097793948007137
100
AcDbArc
 50
97.3335616575
 51
185.8129828859
  0
LINE
  5
AC
330
1F
100
AcDbEntity
  8
0
  6
Continuous
 62
     7
370
    15
100
AcDbLine
 10
360.6034016572
 20
205.161995598
 30
0.0
 11
360.6034016572
 21
194.5619959094
 31
0.0
  0
LINE
  5
AD
330
1F
100
AcDbEntity
  8
0
  6
Continuous
 62
     7
370
    15
100
AcDbLine
 10
365.9109121524
 20
206.3619958878
 30
0.0
 11
365.8293729983
 21
206.3619958878
 31
0.0
  0
LINE
  5
AE
330
1F
100
AcDbEntity
  8
0
  6
Continuous
 62
     7
370
    15
100
AcDbLine
 10
365.8293729983
 20
193.3619956196
 30
0.0
 11
365.9629023038
 21
193.3619956196
 31
0.0
  0
LINE
  5
AF
330
1F
100
AcDbEntity
  8
0
  6
Continuous
 62
     7
370
    15
100
AcDbLine
 10
360.6034016572
 20
203.7619956479
 30
0.0
 11
360.4985868894
 21
203.7619956479
 31
0.0
  0
LINE
  5
B0
330
1F
100
AcDbEntity
  8
0
  6
Continuous
 62
     7
370
    15
100
AcDbLine
 10
360.6034016572
 20
195.1619958215
 30
0.0
 11
360.4985868894
 21
195.1619958215
 31
0.0
  0
LINE
  5
B1
330
1F
100
AcDbEntity
  8
0
  6
Continuous
 62
     7
370
    15
100
AcDbLine
 10
365.9293299876
 20
192.6619958774
 30
0.0
 11
361.1033952199
 21
192.6619958774
 31
0.0
  0
LINE
  5
B2
330
1F
100
AcDbEntity
  8
0
  6
Continuous
 62
     7
370
    15
100
AcDbLine
 10
365.9852540456
 20
191.8619953737
 30
0.0
 11
361.1040061675
 21
191.8619953737
 31
0.0
  0
LINE
  5
B3
330
1F
100
AcDbEntity
  8
0
  6
Continuous
 62
     7
370
    15
100
AcDbLine
 10
365.931863185
 20
207.8619961337
 30
0.0
 11
361.1040061675
 21
207.8619961337
 31
0.0
  0
LINE
  5
B4
330
1F
100
AcDbEntity
  8
0
  6
Continuous
 62
     7
370
    15
100
AcDbLine
 10
365.9715449773
 20
207.06199563
 30
0.0
 11
361.1033952199
 21
207.06199563
 31
0.0
  0
LINE
  5
B5
330
1F
100
AcDbEntity
  8
0
  6
Continuous
 62
     7
370
    15
100
AcDbLine
 10
364.7033965551
 20
208.1619956241
 30
0.0
 11
365.8667600118
 21
208.1619956241
 31
0.0
  0
LINE
  5
B6
330
1F
100
AcDbEntity
  8
0
  6
Continuous
 62
     7
370
    15
100
AcDbLine
 10
366.0299128257
 20
208.1619956241
 30
0.0
 11
366.092244383
 21
208.1619956241
 31
0.0
  0
LINE
  5
B7
330
1F
100
AcDbEntity
  8
0
  6
Continuous
 62
     7
370
    15
100
AcDbLine
 10
362.5033891164
 20
208.1619956241
 30
0.0
 11
364.7033965551
 21
208.1619956241
 31
0.0
  0
LINE
  5
B8
330
1F
100
AcDbEntity
  8
0
  6
Continuous
 62
     7
370
    15
100
AcDbLine
 10
364.7033965551
 20
191.4619960532
 30
0.0
 11
365.806782838
 21
191.4619960532
 31
0.0
  0
LINE
  5
B9
330
1F
100
AcDbEntity
  8
0
  6
Continuous
 62
     7
370
    15
100
AcDbLine
 10
362.6033908092
 20
191.4619960532
 30
0.0
 11
364.7033965551
 21
191.4619960532
 31
0.0
  0
LINE
  5
BA
330
1F
100
AcDbEntity
  8
0
  6
Continuous
 62
     7
370
    15
100
AcDbLine
 10
364.7033965551
 20
191.0619958014
 30
0.0
 11
365.5669039451
 21
191.0619958014
 31
0.0
  0
LINE
  5
BB
330
1F
100
AcDbEntity
  8
0
  6
Continuous
 62
     7
370
    15
100
AcDbLine
 10
362.6033908092
 20
191.0619958014
 30
0.0
 11
364.7033965551
 21
191.0619958014
 31
0.0
  0
ARC
  5
BC
330
1F
100
AcDbEntity
  8
0
  6
Continuous
 62
     7
370
    15
100
AcDbCircle
 10
361.569181692
 20
207.0642321168
 30
0.0
 40
0.8027495456830569
100
AcDbArc
 50
125.4673437335
 51
180.1596281405
  0
ARC
  5
BD
330
1F
100
AcDbEntity
  8
0
  6
Continuous
 62
     7
370
    15
100
AcDbCircle
 10
361.569181692
 20
192.6597593906
 30
0.0
 40
0.8027495456831002
100
AcDbArc
 50
179.8403718595
 51
234.5326562665
  0
LINE
  5
BE
330
1F
100
AcDbEntity
  8
0
  6
Continuous
 62
     7
370
    15
100
AcDbLine
 10
361.5542894565
 20
193.1119955786
 30
0.0
 11
361.5542894565
 21
192.6619958774
 31
0.0
  0
LINE
  5
BF
330
1F
100
AcDbEntity
  8
0
  6
Continuous
 62
     7
370
    15
100
AcDbLine
 10
361.5542894565
 20
207.06199563
 30
0.0
 11
361.5542894565
 21
206.6119959288
 31
0.0
  0
LINE
  5
C0
330
1F
100
AcDbEntity
  8
0
  6
Continuous
 62
     7
370
    15
100
AcDbLine
 10
360.7664352618
 20
192.6619958774
 30
0.0
 11
360.7664352618
 21
193.8904378273
 31
0.0
  0
LINE
  5
C1
330
1F
100
AcDbEntity
  8
0
  6
Continuous
 62
     7
370
    15
100
AcDbLine
 10
360.7664352618
 20
205.8335536801
 30
0.0
 11
360.7664352618
 21
207.06199563
 31
0.0
  0
SPLINE
  5
C2
330
1F
100
AcDbEntity
  8
0
  6
Continuous
 62
     7
370
    15
100
AcDbSpline
210
0.0
220
0.0
230
1.0
 70
    24
 71
     3
 72
    12
 73
     8
 74
     0
 42
0.00000001
 43
0.00000001
 40
0.0
 40
0.0
 40
0.0
 40
0.0
 40
0.2185051145832685
 40
0.4370116439504236
 40
0.6555200999493015
 40
0.8740268718084363
 40
1.0
 40
1.0
 40
1.0
 40
1.0
 10
367.762739058601
 20
206.5543908335967
 30
0.0
 10
367.5660189701589
 20
206.5543908335967
 30
0.0
 10
367.1725775195453
 20
206.5543908335967
 30
0.0
 10
366.6118268305136
 20
206.5543908335967
 30
0.0
 10
366.1941539396306
 20
206.5543908335967
 30
0.0
 10
365.9675905584058
 20
206.5543908335967
 30
0.0
 10
365.9851178611844
 20
206.5543908335967
 30
0.0
 10
365.9915274344555
 20
206.5543908335967
 30
0.0
  0
SPLINE
  5
C3
330
1F
100
AcDbEntity
  8
0
  6
Continuous
 62
     7
370
    15
100
AcDbSpline
210
0.0
220
0.0
230
1.0
 70
    24
 71
     3
 72
     9
 73
     5
 74
     0
 42
0.00000001
 43
0.00000001
 40
0.0
 40
0.0
 40
0.0
 40
0.0
 40
0.1970130322720919
 40
1.0
 40
1.0
 40
1.0
 40
1.0
 10
368.4033995829693
 20
206.5543908335967
 30
0.0
 10
368.3707473870447
 20
206.5543908335967
 30
0.0
 10
368.2050111636691
 20
206.5543908335967
 30
0.0
 10
367.959711495405
 20
206.5543908335967
 30
0.0
 10
367.762739058601
 20
206.5543908335967
 30
0.0
  0
SPLINE
  5
C4
330
1F
100
AcDbEntity
  8
0
  6
Continuous
 62
     7
370
    15
100
AcDbSpline
210
0.0
220
0.0
230
1.0
 70
     8
 71
     3
 72
    13
 73
     9
 74
     0
 42
0.00000001
 43
0.00000001
 40
0.0
 40
0.0
 40
0.0
 40
0.0
 40
0.1877344190872338
 40
0.3754728485412139
 40
0.5632112624932787
 40
0.7509477462650653
 40
0.9386852589542094
 40
1.0
 40
1.0
 40
1.0
 40
1.0
 10
367.4694544039837
 20
210.1692295343382
 30
0.0
 10
367.2727628163371
 20
210.1665292516054
 30
0.0
 10
366.879375439335
 20
210.1611286284566
 30
0.0
 10
366.3463574398094
 20
209.8705964274721
 30
0.0
 10
365.95583044787
 20
209.4156938675661
 30
0.0
 10
365.7828892936884
 20
208.8540101195762
 30
0.0
 10
365.7861585184264
 20
208.3808167703791
 30
0.0
 10
365.9134932653498
 20
208.1593834663273
 30
0.0
 10
365.9448420964351
 20
208.1048682973487
 30
0.0
  0
SPLINE
  5
C5
330
1F
100
AcDbEntity
  8
0
  6
Continuous
 62
     7
370
    15
100
AcDbSpline
210
0.0
220
0.0
230
1.0
 70
     8
 71
     3
 72
    10
 73
     6
 74
     0
 42
0.00000001
 43
0.00000001
 40
0.0
 40
0.0
 40
0.0
 40
0.0
 40
0.2093438294506487
 40
0.604669948165697
 40
1.0
 40
1.0
 40
1.0
 40
1.0
 10
368.6066365204921
 20
209.3631148979766
 30
0.0
 10
368.564928615776
 20
209.4561782691414
 30
0.0
 10
368.4444592585038
 20
209.7249830577327
 30
0.0
 10
368.0377611865459
 20
210.0416479603098
 30
0.0
 10
367.6588906264016
 20
210.1267022019613
 30
0.0
 10
367.4694544039837
 20
210.1692295343382
 30
0.0
  0
SPLINE
  5
C6
330
1F
100
AcDbEntity
  8
0
  6
Continuous
 62
     7
370
    15
100
AcDbSpline
210
0.0
220
0.0
230
1.0
 70
     8
 71
     3
 72
    13
 73
     9
 74
     0
 42
0.00000001
 43
0.00000001
 40
0.0
 40
0.0
 40
0.0
 40
0.0
 40
0.1768614626580366
 40
0.3537266438978727
 40
0.530591680287995
 40
0.7074549205632471
 40
0.884319107889526
 40
1.0
 40
1.0
 40
1.0
 40
1.0
 10
367.4522286616436
 20
189.5260427788598
 30
0.0
 10
367.2555615838182
 20
189.5287335157595
 30
0.0
 10
366.8622232931648
 20
189.5341150461327
 30
0.0
 10
366.3288378774498
 20
189.8247902543694
 30
0.0
 10
365.9397072180126
 20
190.2791545468708
 30
0.0
 10
365.761547377361
 20
190.8428490083699
 30
0.0
 10
365.7825091350979
 20
191.3760000029377
 30
0.0
 10
365.9486030924898
 20
191.6492698037545
 30
0.0
 10
366.0142815075985
 20
191.7573286861879
 30
0.0
  0
SPLINE
  5
C7
330
1F
100
AcDbEntity
  8
0
  6
Continuous
 62
     7
370
    15
100
AcDbSpline
210
0.0
220
0.0
230
1.0
 70
     8
 71
     3
 72
    10
 73
     6
 74
     0
 42
0.00000001
 43
0.00000001
 40
0.0
 40
0.0
 40
0.0
 40
0.0
 40
0.0588212342684354
 40
0.5294130460425892
 40
1.0
 40
1.0
 40
1.0
 40
1.0
 10
368.4823459349743
 20
190.1259523526532
 30
0.0
 10
368.4717114026693
 20
190.1044720145762
 30
0.0
 10
368.3759966457318
 20
189.9111409607008
 30
0.0
 10
368.0151099702003
 20
189.6569731728423
 30
0.0
 10
367.6398551188801
 20
189.5696860933456
 30
0.0
 10
367.4522286616435
 20
189.5260427788598
 30
0.0
  0
SPLINE
  5
C8
330
1F
100
AcDbEntity
  8
0
  6
Continuous
 62
     7
370
    15
100
AcDbSpline
210
0.0
220
0.0
230
1.0
 70
    24
 71
     3
 72
    12
 73
     8
 74
     0
 42
0.00000001
 43
0.00000001
 40
0.0
 40
0.0
 40
0.0
 40
0.0
 40
0.2193538622243088
 40
0.4387091447280026
 40
0.6580663613471072
 40
0.8774218872847014
 40
1.0
 40
1.0
 40
1.0
 40
1.0
 10
367.762739058601
 20
192.995760002057
 30
0.0
 10
367.5660236507428
 20
192.995760002057
 30
0.0
 10
367.1725915613273
 20
192.995760002057
 30
0.0
 10
366.6117706627544
 20
192.995760002057
 30
0.0
 10
366.1943645700707
 20
192.995760002057
 30
0.0
 10
365.9685079555121
 20
192.995760002057
 30
0.0
 10
365.9854967938027
 20
192.995760002057
 30
0.0
 10
365.9915870391002
 20
192.995760002057
 30
0.0
  0
SPLINE
  5
C9
330
1F
100
AcDbEntity
  8
0
  6
Continuous
 62
     7
370
    15
100
AcDbSpline
210
0.0
220
0.0
230
1.0
 70
    24
 71
     3
 72
     9
 73
     5
 74
     0
 42
0.00000001
 43
0.00000001
 40
0.0
 40
0.0
 40
0.0
 40
0.0
 40
0.1970130322720919
 40
1.0
 40
1.0
 40
1.0
 40
1.0
 10
368.4033995829693
 20
192.995760002057
 30
0.0
 10
368.3707473870447
 20
192.995760002057
 30
0.0
 10
368.2050111636691
 20
192.995760002057
 30
0.0
 10
367.959711495405
 20
192.995760002057
 30
0.0
 10
367.762739058601
 20
192.995760002057
 30
0.0
  0
SPLINE
  5
CA
330
1F
100
AcDbEntity
  8
0
  6
Continuous
 62
     7
370
    15
100
AcDbSpline
210
0.0
220
0.0
230
1.0
 70
     8
 71
     3
 72
    13
 73
     9
 74
     0
 42
0.00000001
 43
0.00000001
 40
0.0
 40
0.0
 40
0.0
 40
0.0
 40
0.1768615033144454
 40
0.3537265688979725
 40
0.5305918600777433
 40
0.7074548533138182
 40
0.8843190812971323
 40
1.0
 40
1.0
 40
1.0
 40
1.0
 10
365.9003770314327
 20
212.7856480599148
 30
0.0
 10
365.7037100171579
 20
212.7829572494853
 30
0.0
 10
365.3103720274251
 20
212.7775755744293
 30
0.0
 10
364.7769855752807
 20
212.4869015623762
 30
0.0
 10
364.3878561820542
 20
212.0325368809606
 30
0.0
 10
364.2096955516848
 20
211.4688412434005
 30
0.0
 10
364.2306575365751
 20
210.9356908754241
 30
0.0
 10
364.3967514712585
 20
210.6624210462381
 30
0.0
 10
364.4624298773876
 20
210.5543621525867
 30
0.0
  0
SPLINE
  5
CB
330
1F
100
AcDbEntity
  8
0
  6
Continuous
 62
     7
370
    15
100
AcDbSpline
210
0.0
220
0.0
230
1.0
 70
     8
 71
     3
 72
    10
 73
     6
 74
     0
 42
0.00000001
 43
0.00000001
 40
0.0
 40
0.0
 40
0.0
 40
0.0
 40
0.1474573734895173
 40
0.573730886909061
 40
1.0
 40
1.0
 40
1.0
 40
1.0
 10
366.988966461288
 20
212.0731220290763
 30
0.0
 10
366.9609099144247
 20
212.1334163849732
 30
0.0
 10
366.8517467906386
 20
212.3680111933962
 30
0.0
 10
366.4666668588208
 20
212.6568186528589
 30
0.0
 10
366.0891396577035
 20
212.7427050719947
 30
0.0
 10
365.9003770314327
 20
212.7856480599148
 30
0.0
  0
SPLINE
  5
CC
330
1F
100
AcDbEntity
  8
0
  6
Continuous
 62
     7
370
    15
100
AcDbSpline
210
0.0
220
0.0
230
1.0
 70
     8
 71
     3
 72
    13
 73
     9
 74
     0
 42
0.00000001
 43
0.00000001
 40
0.0
 40
0.0
 40
0.0
 40
0.0
 40
0.1768653836687103
 40
0.3537300190614872
 40
0.5305916012776648
 40
0.7074553904964731
 40
0.8843190319787603
 40
1.0
 40
1.0
 40
1.0
 40
1.0
 10
365.8831661902537
 20
186.9096242532832
 30
0.0
 10
365.6864944102971
 20
186.9123145595234
 30
0.0
 10
365.2931516824559
 20
186.9176951606217
 30
0.0
 10
364.7597585811807
 20
187.2083667726678
 30
0.0
 10
364.3706510308591
 20
187.6627438932584
 30
0.0
 10
364.1924641142681
 20
188.226427180513
 30
0.0
 10
364.2134330086122
 20
188.7595827641939
 30
0.0
 10
364.3795259665505
 20
189.0328514676258
 30
0.0
 10
364.4452041350474
 20
189.1409101606114
 30
0.0
  0
SPLINE
  5
CD
330
1F
100
AcDbEntity
  8
0
  6
Continuous
 62
     7
370
    15
100
AcDbSpline
210
0.0
220
0.0
230
1.0
 70
     8
 71
     3
 72
    10
 73
     6
 74
     0
 42
0.00000001
 43
0.00000001
 40
0.0
 40
0.0
 40
0.0
 40
0.0
 40
0.147459893261942
 40
0.5737376743044033
 40
1.0
 40
1.0
 40
1.0
 40
1.0
 10
366.971740718948
 20
187.6221502841217
 30
0.0
 10
366.9436842321509
 20
187.5618559593206
 30
0.0
 10
366.8345219160252
 20
187.3272625053317
 30
0.0
 10
366.449445241364
 20
187.0384570990358
 30
0.0
 10
366.0719235926459
 20
186.9525680161849
 30
0.0
 10
365.8831661902538
 20
186.9096242532832
 30
0.0
  0
LINE
  5
CE
330
1F
100
AcDbEntity
  8
0
  6
Continuous
 62
     7
370
    15
100
AcDbLine
 10
670.5047583543
 20
104.8619969458
 30
0.0
 11
670.5047583543
 21
69.8620005221
 31
0.0
  0
LINE
  5
CF
330
1F
100
AcDbEntity
  8
0
  6
Continuous
 62
     7
370
    15
100
AcDbLine
 10
681.1034029685
 20
69.8620005221
 30
0.0
 11
670.5047583543
 21
69.8620005221
 31
0.0
  0
LINE
  5
D0
330
1F
100
AcDbEntity
  8
0
  6
Continuous
 62
     7
370
    15
100
AcDbLine
 10
681.1034029685
 20
104.8619969458
 30
0.0
 11
670.5047583543
 21
104.8619969458
 31
0.0
  0
LINE
  5
D1
330
1F
100
AcDbEntity
  8
0
  6
Continuous
 62
     7
370
    15
100
AcDbLine
 10
670.5047583543
 20
329.8619909853
 30
0.0
 11
670.5047583543
 21
294.8619945616
 31
0.0
  0
LINE
  5
D2
330
1F
100
AcDbEntity
  8
0
  6
Continuous
 62
     7
370
    15
100
AcDbLine
 10
681.1034029685
 20
329.8619909853
 30
0.0
 11
670.5047583543
 21
329.8619909853
 31
0.0
  0
LINE
  5
D3
330
1F
100
AcDbEntity
  8
0
  6
Continuous
 62
     7
370
    15
100
AcDbLine
 10
681.1034029685
 20
294.8619945616
 30
0.0
 11
670.5047583543
 21
294.8619945616
 31
0.0
  0
LINE
  5
D4
330
1F
100
AcDbEntity
  8
0
  6
Continuous
 62
     7
370
    15
100
AcDbLine
 10
678.1033968888
 20
141.8619974226
 30
0.0
 11
673.1034016572
 21
141.8619974226
 31
0.0
  0
LINE
  5
D5
330
1F
100
AcDbEntity
  8
0
  6
Continuous
 62
     7
370
    15
100
AcDbLine
 10
673.1034016572
 20
257.8619940848
 30
0.0
 11
678.1033968888
 21
257.8619940848
 31
0.0
  0
LINE
  5
D6
330
1F
100
AcDbEntity
  8
0
  6
Continuous
 62
     7
370
    15
100
AcDbLine
 10
670.0412428342
 20
69.8620005221
 30
0.0
 11
670.0412428342
 21
104.8619969458
 31
0.0
  0
LINE
  5
D7
330
1F
100
AcDbEntity
  8
0
  6
Continuous
 62
     7
370
    15
100
AcDbLine
 10
670.5047583543
 20
69.8620005221
 30
0.0
 11
670.0412428342
 21
69.8620005221
 31
0.0
  0
LINE
  5
D8
330
1F
100
AcDbEntity
  8
0
  6
Continuous
 62
     7
370
    15
100
AcDbLine
 10
670.0412428342
 20
104.8619969458
 30
0.0
 11
670.5047583543
 21
104.8619969458
 31
0.0
  0
LINE
  5
D9
330
1F
100
AcDbEntity
  8
0
  6
Continuous
 62
     7
370
    15
100
AcDbLine
 10
670.0412428342
 20
294.8619945616
 30
0.0
 11
670.0412428342
 21
329.8619909853
 31
0.0
  0
LINE
  5
DA
330
1F
100
AcDbEntity
  8
0
  6
Continuous
 62
     7
370
    15
100
AcDbLine
 10
670.0412428342
 20
329.8619909853
 30
0.0
 11
670.5047583543
 21
329.8619909853
 31
0.0
  0
LINE
  5
DB
330
1F
100
AcDbEntity
  8
0
  6
Continuous
 62
     7
370
    15
100
AcDbLine
 10
670.5047583543
 20
294.8619945616
 30
0.0
 11
670.0412428342
 21
294.8619945616
 31
0.0
  0
LINE
  5
DC
330
1F
100
AcDbEntity
  8
0
  6
Continuous
 62
     7
370
    15
100
AcDbLine
 10
670.0412428342
 20
329.8619909853
 30
0.0
 11
669.6034020148
 21
329.8619909853
 31
0.0
  0
LINE
  5
DD
330
1F
100
AcDbEntity
  8
0
  6
Continuous
 62
     7
370
    15
100
AcDbLine
 10
670.0412428342
 20
294.8619945616
 30
0.0
 11
669.6034020148
 21
294.8619945616
 31
0.0
  0
LINE
  5
DE
330
1F
100
AcDbEntity
  8
0
  6
Continuous
 62
     7
370
    15
100
AcDbLine
 10
670.0412428342
 20
69.8620005221
 30
0.0
 11
669.6034020148
 21
69.8620005221
 31
0.0
  0
LINE
  5
DF
330
1F
100
AcDbEntity
  8
0
  6
Continuous
 62
     7
370
    15
100
AcDbLine
 10
670.0412428342
 20
104.8619969458
 30
0.0
 11
669.6034020148
 21
104.8619969458
 31
0.0
  0
LINE
  5
E0
330
1F
100
AcDbEntity
  8
0
  6
Continuous
 62
     7
370
    15
100
AcDbLine
 10
364.4033914767
 20
206.6119959288
 30
0.0
 11
361.3033986055
 21
206.6119959288
 31
0.0
  0
LINE
  5
E1
330
1F
100
AcDbEntity
  8
0
  6
Continuous
 62
     7
370
    15
100
AcDbLine
 10
364.4033914767
 20
193.1119955786
 30
0.0
 11
361.3033986055
 21
193.1119955786
 31
0.0
  0
LINE
  5
E2
330
1F
100
AcDbEntity
  8
0
  6
Continuous
 62
     7
370
    15
100
AcDbLine
 10
364.4033914767
 20
193.1119955786
 30
0.0
 11
365.9629023038
 21
193.1119955786
 31
0.0
  0
LINE
  5
E3
330
1F
100
AcDbEntity
  8
0
  6
Continuous
 62
     7
370
    15
100
AcDbLine
 10
364.4033914767
 20
206.6119959288
 30
0.0
 11
365.9634685479
 21
206.6119959288
 31
0.0
  0
LINE
  5
E4
330
1F
100
AcDbEntity
  8
0
  6
Continuous
 62
     8
370
    15
100
AcDbLine
 10
364.4033914767
 20
206.6119959288
 30
0.0
 11
364.4033914767
 21
206.3619958878
 31
0.0
  0
LINE
  5
E5
330
1F
100
AcDbEntity
  8
0
  6
Continuous
 62
     8
370
    15
100
AcDbLine
 10
364.4033914767
 20
193.3619956196
 30
0.0
 11
364.4033914767
 21
193.1119955786
 31
0.0
  0
LINE
  5
E6
330
1F
100
AcDbEntity
  8
0
  6
Continuous
 62
     7
370
    15
100
AcDbLine
 10
245.6973081712
 20
206.3619958878
 30
0.0
 11
245.6973081712
 21
193.3619956196
 31
0.0
  0
LINE
  5
E7
330
1F
100
AcDbEntity
  8
0
  6
Continuous
 62
     7
370
    15
100
AcDbLine
 10
235.907312322
 20
207.06199563
 30
0.0
 11
235.907312322
 21
207.8619961337
 31
0.0
  0
LINE
  5
E8
330
1F
100
AcDbEntity
  8
0
  6
Continuous
 62
     7
370
    15
100
AcDbLine
 10
235.907312322
 20
191.8619953737
 30
0.0
 11
235.907312322
 21
192.6619958774
 31
0.0
  0
LINE
  5
E9
330
1F
100
AcDbEntity
  8
0
  6
Continuous
 62
     7
370
    15
100
AcDbLine
 10
230.9773078445
 20
208.1619956241
 30
0.0
 11
230.9773078445
 21
207.8619961337
 31
0.0
  0
LINE
  5
EA
330
1F
100
AcDbEntity
  8
0
  6
Continuous
 62
     7
370
    15
100
AcDbLine
 10
235.3773078207
 20
207.8619961337
 30
0.0
 11
235.3773078207
 21
208.1619956241
 31
0.0
  0
ARC
  5
EB
330
1F
100
AcDbEntity
  8
0
  6
Continuous
 62
     7
370
    15
100
AcDbCircle
 10
233.1773106865
 20
205.0548528966
 30
0.0
 40
3.807142857143211
100
AcDbArc
 50
54.6997515601
 51
125.3002484399
  0
LINE
  5
EC
330
1F
100
AcDbEntity
  8
0
  6
Continuous
 62
     7
370
    15
100
AcDbLine
 10
231.0773095373
 20
191.4619960532
 30
0.0
 11
231.0773095373
 21
191.0619958014
 31
0.0
  0
LINE
  5
ED
330
1F
100
AcDbEntity
  8
0
  6
Continuous
 62
     7
370
    15
100
AcDbLine
 10
235.2773135785
 20
191.0619958014
 30
0.0
 11
235.2773135785
 21
191.4619960532
 31
0.0
  0
ARC
  5
EE
330
1F
100
AcDbEntity
  8
0
  6
Continuous
 62
     7
370
    15
100
AcDbCircle
 10
231.2773106865
 20
191.8619957538
 30
0.0
 40
0.4000000000007731
100
AcDbArc
 50
270.0
 51
0.0
  0
ARC
  5
EF
330
1F
100
AcDbEntity
  8
0
  6
Continuous
 62
     7
370
    15
100
AcDbCircle
 10
235.0773106865
 20
191.8619957538
 30
0.0
 40
0.4000000000008015
100
AcDbArc
 50
180.0
 51
270.0
  0
LINE
  5
F0
330
1F
100
AcDbEntity
  8
0
  6
Continuous
 62
     7
370
    15
100
AcDbLine
 10
231.6773122434
 20
207.06199563
 30
0.0
 11
231.6773122434
 21
206.6119959288
 31
0.0
  0
LINE
  5
F1
330
1F
100
AcDbEntity
  8
0
  6
Continuous
 62
     7
370
    15
100
AcDbLine
 10
231.6773122434
 20
205.6119957649
 30
0.0
 11
231.6773122434
 21
205.1232912288
 31
0.0
  0
LINE
  5
F2
330
1F
100
AcDbEntity
  8
0
  6
Continuous
 62
     7
370
    15
100
AcDbLine
 10
231.6773122434
 20
204.3271766686
 30
0.0
 11
231.6773122434
 21
204.1714795575
 31
0.0
  0
LINE
  5
F3
330
1F
100
AcDbEntity
  8
0
  6
Continuous
 62
     7
370
    15
100
AcDbLine
 10
231.6773122434
 20
194.8723689363
 30
0.0
 11
231.6773122434
 21
194.1119957425
 31
0.0
  0
LINE
  5
F4
330
1F
100
AcDbEntity
  8
0
  6
Continuous
 62
     7
370
    15
100
AcDbLine
 10
231.6773122434
 20
193.1119955786
 30
0.0
 11
231.6773122434
 21
192.6619958774
 31
0.0
  0
LINE
  5
F5
330
1F
100
AcDbEntity
  8
0
  6
Continuous
 62
     7
370
    15
100
AcDbLine
 10
234.6773108724
 20
192.6619958774
 30
0.0
 11
234.6773108724
 21
193.1119955786
 31
0.0
  0
LINE
  5
F6
330
1F
100
AcDbEntity
  8
0
  6
Continuous
 62
     7
370
    15
100
AcDbLine
 10
234.6773108724
 20
194.1119957425
 30
0.0
 11
234.6773108724
 21
194.599137985
 31
0.0
  0
LINE
  5
F7
330
1F
100
AcDbEntity
  8
0
  6
Continuous
 62
     7
370
    15
100
AcDbLine
 10
234.6773108724
 20
203.9070551925
 30
0.0
 11
234.6773108724
 21
204.0949937598
 31
0.0
  0
LINE
  5
F8
330
1F
100
AcDbEntity
  8
0
  6
Continuous
 62
     7
370
    15
100
AcDbLine
 10
234.6773108724
 20
204.8500728504
 30
0.0
 11
234.6773108724
 21
205.6119957649
 31
0.0
  0
LINE
  5
F9
330
1F
100
AcDbEntity
  8
0
  6
Continuous
 62
     7
370
    15
100
AcDbLine
 10
234.6773108724
 20
206.6119959288
 30
0.0
 11
234.6773108724
 21
207.06199563
 31
0.0
  0
SPLINE
  5
FA
330
1F
100
AcDbEntity
  8
0
  6
Continuous
 62
     7
370
    15
100
AcDbSpline
210
0.0
220
0.0
230
1.0
 70
     8
 71
     3
 72
    15
 73
    11
 74
     0
 42
0.00000001
 43
0.00000001
 40
0.0
 40
0.0
 40
0.0
 40
0.0
 40
0.1356028663338301
 40
0.2953315886943306
 40
0.4038095484465317
 40
0.5319635813589845
 40
0.6738457581954921
 40
0.8261073253668793
 40
0.9126171788294358
 40
1.0
 40
1.0
 40
1.0
 40
1.0
 10
234.6773108724491
 20
194.4280409895582
 30
0.0
 10
234.7216923458046
 20
194.4207178763251
 30
0.0
 10
234.8183514459332
 20
194.4047687542765
 30
0.0
 10
235.0252025754508
 20
194.4524347545523
 30
0.0
 10
235.2184629506766
 20
194.540165650849
 30
0.0
 10
235.3650514472985
 20
194.6598251934982
 30
0.0
 10
235.4637540868254
 20
194.8107147937232
 30
0.0
 10
235.4934214527043
 20
194.932568795992
 30
0.0
 10
235.4722324630768
 20
195.0618114040694
 30
0.0
 10
235.4259793218089
 20
195.1284894377394
 30
0.0
 10
235.4027366522685
 20
195.161995821516
 30
0.0
  0
SPLINE
  5
FB
330
1F
100
AcDbEntity
  8
0
  6
Continuous
 62
     7
370
    15
100
AcDbSpline
210
0.0
220
0.0
230
1.0
 70
     8
 71
     3
 72
    20
 73
    16
 74
     0
 42
0.00000001
 43
0.00000001
 40
0.0
 40
0.0
 40
0.0
 40
0.0
 40
0.0607086214852914
 40
0.2265341895458336
 40
0.390803581223065
 40
0.4705950241619049
 40
0.5476206230061507
 40
0.6228561628181747
 40
0.7003374888932409
 40
0.7786476390016884
 40
0.8566581059630805
 40
0.9331014492745098
 40
0.9703731458204543
 40
0.9892352107449414
 40
1.0
 40
1.0
 40
1.0
 40
1.0
 10
230.9411129239932
 20
195.161995821516
 30
0.0
 10
230.9873874849368
 20
195.1086624240244
 30
0.0
 10
231.1600609850672
 20
194.909648878981
 30
0.0
 10
231.5770343983837
 20
194.8917221259672
 30
0.0
 10
232.1419888517074
 20
194.8166991631717
 30
0.0
 10
232.661601568959
 20
194.7737569804111
 30
0.0
 10
233.0554926367489
 20
194.743206418941
 30
0.0
 10
233.4484030751614
 20
194.7155229325422
 30
0.0
 10
233.8295650825886
 20
194.6842164281488
 30
0.0
 10
234.1852913251752
 20
194.6517434866927
 30
0.0
 10
234.4879177260395
 20
194.6209175403241
 30
0.0
 10
234.6804299616662
 20
194.5980154903127
 30
0.0
 10
234.7685382940335
 20
194.5899876708853
 30
0.0
 10
234.8139756456237
 20
194.5821932376053
 30
0.0
 10
234.81341912315
 20
194.5861520859972
 30
0.0
 10
234.8132169131175
 20
194.5875905164284
 30
0.0
  0
SPLINE
  5
FC
330
1F
100
AcDbEntity
  8
0
  6
Continuous
 62
     7
370
    15
100
AcDbSpline
210
0.0
220
0.0
230
1.0
 70
     8
 71
     3
 72
    18
 73
    14
 74
     0
 42
0.00000001
 43
0.00000001
 40
0.0
 40
0.0
 40
0.0
 40
0.0
 40
0.0057536129122021
 40
0.1156389023353307
 40
0.2383936358241066
 40
0.3593077623635511
 40
0.4757041881704016
 40
0.5872127586402517
 40
0.7047314396689262
 40
0.8265009696926193
 40
0.8891454136453518
 40
0.9517929294910257
 40
1.0
 40
1.0
 40
1.0
 40
1.0
 10
235.1839280012981
 20
203.8088197530014
 30
0.0
 10
235.1792808420349
 20
203.811773229893
 30
0.0
 10
235.085879981676
 20
203.871133640653
 30
0.0
 10
234.8635087090126
 20
203.8773161310412
 30
0.0
 10
234.4721413867963
 20
203.9365133961677
 30
0.0
 10
233.9602499064802
 20
203.9820600765496
 30
0.0
 10
233.4092252690525
 20
204.028211705958
 30
0.0
 10
232.8471087648941
 20
204.0671078593868
 30
0.0
 10
232.3128292606279
 20
204.111837938742
 30
0.0
 10
231.9151945362878
 20
204.1529083525924
 30
0.0
 10
231.7004658243739
 20
204.1740297159411
 30
0.0
 10
231.6043987301763
 20
204.176318752017
 30
0.0
 10
231.5889628500326
 20
204.1602436503398
 30
0.0
 10
231.5822502855197
 20
204.1532531090779
 30
0.0
  0
SPLINE
  5
FD
330
1F
100
AcDbEntity
  8
0
  6
Continuous
 62
     7
370
    15
100
AcDbSpline
210
0.0
220
0.0
230
1.0
 70
     8
 71
     3
 72
    12
 73
     8
 74
     0
 42
0.00000001
 43
0.00000001
 40
0.0
 40
0.0
 40
0.0
 40
0.0
 40
0.2236729820054967
 40
0.4523097742282867
 40
0.6822372678484837
 40
0.9102273613192214
 40
1.0
 40
1.0
 40
1.0
 40
1.0
 10
230.8830132964984
 20
204.9638464757008
 30
0.0
 10
230.8702778774761
 20
204.9212985480517
 30
0.0
 10
230.8445244116302
 20
204.8352584578438
 30
0.0
 10
230.9656474166156
 20
204.74364340596
 30
0.0
 10
231.1973287192789
 20
204.6473380429604
 30
0.0
 10
231.4421851592957
 20
204.5848469846193
 30
0.0
 10
231.6255180181865
 20
204.5900671275509
 30
0.0
 10
231.6773122433559
 20
204.5915418945951
 30
0.0
  0
SPLINE
  5
FE
330
1F
100
AcDbEntity
  8
0
  6
Continuous
 62
     7
370
    15
100
AcDbSpline
210
0.0
220
0.0
230
1.0
 70
     8
 71
     3
 72
    19
 73
    15
 74
     0
 42
0.00000001
 43
0.00000001
 40
0.0
 40
0.0
 40
0.0
 40
0.0
 40
0.0979033736757284
 40
0.1753767752232956
 40
0.2884822032961697
 40
0.3734525700840743
 40
0.4570022720946865
 40
0.6168867031555729
 40
0.6796659019373148
 40
0.7634255342528317
 40
0.8137555855017751
 40
0.8702971455237448
 40
0.9323987944767276
 40
1.0
 40
1.0
 40
1.0
 40
1.0
 10
231.0592493299381
 20
204.4687158138258
 30
0.0
 10
231.1097564342367
 20
204.4423388193317
 30
0.0
 10
231.2002310802596
 20
204.3950890457971
 30
0.0
 10
231.5748745002363
 20
204.334440413648
 30
0.0
 10
232.061386893938
 20
204.2805536330459
 30
0.0
 10
232.6527148168269
 20
204.2273201269346
 30
0.0
 10
233.406817322637
 20
204.1757704139384
 30
0.0
 10
234.0479080446246
 20
204.1088265385735
 30
0.0
 10
234.6971841506987
 20
204.0733067696931
 30
0.0
 10
235.0755145396173
 20
204.1514941942187
 30
0.0
 10
235.3273677407264
 20
204.2596910971753
 30
0.0
 10
235.4609646236476
 20
204.3480335333869
 30
0.0
 10
235.5227215994026
 20
204.4218741313509
 30
0.0
 10
235.4512862375998
 20
204.5023894668871
 30
0.0
 10
235.4140540841953
 20
204.5443541080458
 30
0.0
  0
SPLINE
  5
FF
330
1F
100
AcDbEntity
  8
0
  6
Continuous
 62
     7
370
    15
100
AcDbSpline
210
0.0
220
0.0
230
1.0
 70
     8
 71
     3
 72
    25
 73
    21
 74
     0
 42
0.00000001
 43
0.00000001
 40
0.0
 40
0.0
 40
0.0
 40
0.0
 40
0.017626891199656
 40
0.0344971271163479
 40
0.0503149875215914
 40
0.0649736946624755
 40
0.0909443827718167
 40
0.1134380192291229
 40
0.1538408705044994
 40
0.191234728647758
 40
0.2995718685966565
 40
0.3999645798574709
 40
0.5012967436741349
 40
0.5949071580053961
 40
0.6784893124529331
 40
0.7336313413615942
 40
0.8075206955948011
 40
0.8952856599339531
 40
0.9453107714913105
 40
1.0
 40
1.0
 40
1.0
 40
1.0
 10
235.0567316893474
 20
203.9187721618218
 30
0.0
 10
235.0964427382571
 20
203.9231661615017
 30
0.0
 10
235.1741601920409
 20
203.9317655431958
 30
0.0
 10
235.2760347663556
 20
203.9777740241481
 30
0.0
 10
235.3570564799061
 20
204.0367277037008
 30
0.0
 10
235.4332553159508
 20
204.1203028231886
 30
0.0
 10
235.4863088616272
 20
204.2239555341208
 30
0.0
 10
235.5104690826976
 20
204.3562886492694
 30
0.0
 10
235.4875663432855
 20
204.4881480745695
 30
0.0
 10
235.3163499313158
 20
204.7333672568977
 30
0.0
 10
234.9735429567593
 20
204.8204443067874
 30
0.0
 10
234.478434923417
 20
204.8790007026397
 30
0.0
 10
233.8652203790611
 20
204.9373575900914
 30
0.0
 10
233.2157525679432
 20
204.9869802389081
 30
0.0
 10
232.6760422505967
 20
205.0264610818435
 30
0.0
 10
232.2300503051037
 20
205.0656373823338
 30
0.0
 10
231.841330846862
 20
205.103866286104
 30
0.0
 10
231.5811709944183
 20
205.1317078764913
 30
0.0
 10
231.4507462188333
 20
205.1542017032629
 30
0.0
 10
231.4420791273959
 20
205.1666650318791
 30
0.0
 10
231.4375525597469
 20
205.1731742628617
 30
0.0
  0
SPLINE
  5
100
330
1F
100
AcDbEntity
  8
0
  6
Continuous
 62
     7
370
    15
100
AcDbSpline
210
0.0
220
0.0
230
1.0
 70
     8
 71
     3
 72
    12
 73
     8
 74
     0
 42
0.00000001
 43
0.00000001
 40
0.0
 40
0.0
 40
0.0
 40
0.0
 40
0.175647670400461
 40
0.5723083889404248
 40
0.758616423787197
 40
0.9207513991597377
 40
1.0
 40
1.0
 40
1.0
 40
1.0
 10
231.5258791927234
 20
204.354686540435
 30
0.0
 10
231.4603155496577
 20
204.3455155122506
 30
0.0
 10
231.2466911796306
 20
204.3156337816636
 30
0.0
 10
231.0307741293888
 20
204.2416927846915
 30
0.0
 10
230.8696228499953
 20
204.0267703418913
 30
0.0
 10
230.8384092020535
 20
203.8665484577276
 30
0.0
 10
230.8693861805586
 20
203.7878853236726
 30
0.0
 10
230.8795562271015
 20
203.7620594435138
 30
0.0
  0
LINE
  5
101
330
1F
100
AcDbEntity
  8
0
  6
Continuous
 62
     7
370
    15
100
AcDbLine
 10
231.0370689515
 20
195.06425538
 30
0.0
 11
229.918610144
 21
195.06425538
 31
0.0
  0
LINE
  5
102
330
1F
100
AcDbEntity
  8
0
  6
Continuous
 62
     7
370
    15
100
AcDbLine
 10
229.918610144
 20
194.2642558076
 30
0.0
 11
231.6773122434
 21
194.2642558076
 31
0.0
  0
LINE
  5
103
330
1F
100
AcDbEntity
  8
0
  6
Continuous
 62
     7
370
    15
100
AcDbLine
 10
228.5083195452
 20
207.8619961337
 30
0.0
 11
228.5083195452
 21
207.9154661567
 31
0.0
  0
LINE
  5
104
330
1F
100
AcDbEntity
  8
0
  6
Continuous
 62
     7
370
    15
100
AcDbLine
 10
225.5083209161
 20
207.9154661567
 30
0.0
 11
225.5083209161
 21
207.8619961337
 31
0.0
  0
SPLINE
  5
105
330
1F
100
AcDbEntity
  8
0
  6
Continuous
 62
     7
370
    15
100
AcDbSpline
210
0.0
220
0.0
230
1.0
 70
     8
 71
     3
 72
    15
 73
    11
 74
     0
 42
0.00000001
 43
0.00000001
 40
0.0
 40
0.0
 40
0.0
 40
0.0
 40
0.1077552675361844
 40
0.2352510372338785
 40
0.3627912513738016
 40
0.4902571009683765
 40
0.617663018955488
 40
0.7450977887964529
 40
0.8724973178809208
 40
1.0
 40
1.0
 40
1.0
 40
1.0
 10
225.5243694666759
 20
191.8619953737361
 30
0.0
 10
225.5409124767142
 20
191.5494746655793
 30
0.0
 10
225.5770291358759
 20
190.8671802178739
 30
0.0
 10
225.9132262981995
 20
189.8580259676146
 30
0.0
 10
226.471314179992
 20
188.8945476953177
 30
0.0
 10
227.2261442674059
 20
188.0736287421791
 30
0.0
 10
228.1412998118675
 20
187.4383501872299
 30
0.0
 10
229.168558506196
 20
187.018194361457
 30
0.0
 10
230.2645376975949
 20
186.8043861329612
 30
0.0
 10
231.0002944945005
 20
186.8699166803064
 30
0.0
 10
231.3683217648403
 20
186.9026952133281
 30
0.0
  0
SPLINE
  5
106
330
1F
100
AcDbEntity
  8
0
  6
Continuous
 62
     7
370
    15
100
AcDbSpline
210
0.0
220
0.0
230
1.0
 70
     8
 71
     3
 72
    15
 73
    11
 74
     0
 42
0.00000001
 43
0.00000001
 40
0.0
 40
0.0
 40
0.0
 40
0.0
 40
0.1316497309041642
 40
0.2633111631157699
 40
0.3951882693829391
 40
0.5266681356379989
 40
0.657545980020369
 40
0.7882122681223777
 40
0.918459392610764
 40
0.9999999999999999
 40
0.9999999999999999
 40
0.9999999999999999
 40
0.9999999999999999
 10
230.8706304315463
 20
189.8603801325661
 30
0.0
 10
230.7184489586319
 20
189.8485659599496
 30
0.0
 10
230.4140724865908
 20
189.8249365646477
 30
0.0
 10
229.9632169949958
 20
189.9264162836078
 30
0.0
 10
229.5441868127223
 20
190.113266867814
 30
0.0
 10
229.1737937333692
 20
190.3858639178769
 30
0.0
 10
228.8715323537456
 20
190.7317742853894
 30
0.0
 10
228.6523750385618
 20
191.1334825806867
 30
0.0
 10
228.5350021249151
 20
191.5197948953029
 30
0.0
 10
228.524828127382
 20
191.766869089893
 30
0.0
 10
228.5209110263721
 20
191.8619953737361
 30
0.0
  0
SPLINE
  5
107
330
1F
100
AcDbEntity
  8
0
  6
Continuous
 62
     7
370
    15
100
AcDbSpline
210
0.0
220
0.0
230
1.0
 70
     8
 71
     3
 72
    15
 73
    11
 74
     0
 42
0.00000001
 43
0.00000001
 40
0.0
 40
0.0
 40
0.0
 40
0.0
 40
0.1249271199019881
 40
0.2499164786626197
 40
0.3749670180552142
 40
0.4999570436912684
 40
0.624920505096255
 40
0.7499166867458813
 40
0.8748739282905801
 40
1.0
 40
1.0
 40
1.0
 40
1.0
 10
231.5392008308307
 20
212.7925165639026
 30
0.0
 10
231.1728241714258
 20
212.8358484204729
 30
0.0
 10
230.4398883232731
 20
212.9225337216026
 30
0.0
 10
229.3358622456865
 20
212.757343979956
 30
0.0
 10
228.2950629535623
 20
212.3684131804117
 30
0.0
 10
227.3598739767455
 20
211.7633986839759
 30
0.0
 10
226.5792304680111
 20
210.9672048370326
 30
0.0
 10
225.9912681409542
 20
210.0228415716121
 30
0.0
 10
225.5954318106668
 20
208.9743990255422
 30
0.0
 10
225.5373709464819
 20
208.2352768289872
 30
0.0
 10
225.5083209160701
 20
207.8654662416083
 30
0.0
  0
SPLINE
  5
108
330
1F
100
AcDbEntity
  8
0
  6
Continuous
 62
     7
370
    15
100
AcDbSpline
210
0.0
220
0.0
230
1.0
 70
     8
 71
     3
 72
    15
 73
    11
 74
     0
 42
0.00000001
 43
0.00000001
 40
0.0
 40
0.0
 40
0.0
 40
0.0
 40
0.1242527101213646
 40
0.2486335825946776
 40
0.3735414236081396
 40
0.498583312213038
 40
0.6236637605150498
 40
0.7490698541557573
 40
0.8744383731249473
 40
1.0
 40
1.0
 40
1.0
 40
1.0
 10
228.5083195451633
 20
207.8654662416083
 30
0.0
 10
228.5218763483646
 20
208.0174227462115
 30
0.0
 10
228.5490039381386
 20
208.321492493271
 30
0.0
 10
228.7234733303765
 20
208.7488047158976
 30
0.0
 10
228.9768041653159
 20
209.1304487607376
 30
0.0
 10
229.306628341405
 20
209.4503775527828
 30
0.0
 10
229.697554371014
 20
209.6909538176719
 30
0.0
 10
230.130252479897
 20
209.8425775641284
 30
0.0
 10
230.587784320494
 20
209.896035051386
 30
0.0
 10
230.8897035514257
 20
209.8553450427545
 30
0.0
 10
231.0407793406383
 20
209.8349843815667
 30
0.0
  0
LINE
  5
109
330
1F
100
AcDbEntity
  8
0
  6
Continuous
 62
     7
370
    15
100
AcDbLine
 10
246.4113792662
 20
192.4771325373
 30
0.0
 11
230.8704143647
 21
189.8607144774
 31
0.0
  0
LINE
  5
10A
330
1F
100
AcDbEntity
  8
0
  6
Continuous
 62
     7
370
    15
100
AcDbLine
 10
231.3684707765
 20
186.9023468987
 30
0.0
 11
246.9094431285
 21
189.5187654243
 31
0.0
  0
LINE
  5
10B
330
1F
100
AcDbEntity
  8
0
  6
Continuous
 62
     7
370
    15
100
AcDbLine
 10
231.0409954075
 20
209.8345587672
 30
0.0
 11
246.5819677595
 21
207.2181397759
 31
0.0
  0
LINE
  5
10C
330
1F
100
AcDbEntity
  8
0
  6
Continuous
 62
     7
370
    15
100
AcDbLine
 10
247.0800241712
 20
210.1765068889
 30
0.0
 11
231.5390592698
 21
212.7929254145
 31
0.0
  0
SPLINE
  5
10D
330
1F
100
AcDbEntity
  8
0
  6
Continuous
 62
     7
370
    15
100
AcDbSpline
210
0.0
220
0.0
230
1.0
 70
     8
 71
     3
 72
    12
 73
     8
 74
     0
 42
0.00000001
 43
0.00000001
 40
0.0
 40
0.0
 40
0.0
 40
0.0
 40
0.1526138277410233
 40
0.2973906386375711
 40
0.5623707933915906
 40
0.7966024105034107
 40
0.9999999999999999
 40
0.9999999999999999
 40
0.9999999999999999
 40
0.9999999999999999
 10
246.909092951192
 20
189.5190746233565
 30
0.0
 10
247.160312547109
 20
189.5718127116591
 30
0.0
 10
247.6498511241429
 20
189.6745806848694
 30
0.0
 10
248.4993733997257
 20
190.1038259187228
 30
0.0
 10
249.3113664235275
 20
190.8482182899275
 30
0.0
 10
249.8758019097311
 20
191.9192618637035
 30
0.0
 10
249.9574916474024
 20
192.6541875003003
 30
0.0
 10
249.9954587105647
 20
192.995760002057
 30
0.0
  0
SPLINE
  5
10E
330
1F
100
AcDbEntity
  8
0
  6
Continuous
 62
     7
370
    15
100
AcDbSpline
210
0.0
220
0.0
230
1.0
 70
     8
 71
     3
 72
    11
 73
     7
 74
     0
 42
0.00000001
 43
0.00000001
 40
0.0
 40
0.0
 40
0.0
 40
0.0
 40
0.200357051305965
 40
0.4328048089701403
 40
0.6990199465929517
 40
1.0
 40
1.0
 40
1.0
 40
1.0
 10
246.9971439126865
 20
192.995760002057
 30
0.0
 10
246.9839164613288
 20
192.9393334746075
 30
0.0
 10
246.9553429495871
 20
192.8174427187072
 30
0.0
 10
246.8394579638372
 20
192.6517424700754
 30
0.0
 10
246.6547051687825
 20
192.5128330112026
 30
0.0
 10
246.4970841134437
 20
192.4894450296274
 30
0.0
 10
246.4134430769817
 20
192.4770342827541
 30
0.0
  0
SPLINE
  5
10F
330
1F
100
AcDbEntity
  8
0
  6
Continuous
 62
     7
370
    15
100
AcDbSpline
210
0.0
220
0.0
230
1.0
 70
     8
 71
     3
 72
    12
 73
     8
 74
     0
 42
0.00000001
 43
0.00000001
 40
0.0
 40
0.0
 40
0.0
 40
0.0
 40
0.2034065801408748
 40
0.4376406898974082
 40
0.7026158536940192
 40
0.8473899973411095
 40
0.9999999999999999
 40
0.9999999999999999
 40
0.9999999999999999
 40
0.9999999999999999
 10
249.9954587105647
 20
206.5543908335966
 30
0.0
 10
249.9740209591262
 20
206.8973997245977
 30
0.0
 10
249.9278964319703
 20
207.6354026328353
 30
0.0
 10
249.4157905594944
 20
208.7325113466505
 30
0.0
 10
248.6405843007408
 20
209.5152682300057
 30
0.0
 10
247.8127341011453
 20
209.984996195314
 30
0.0
 10
247.3287451863562
 20
210.1112574156963
 30
0.0
 10
247.0803743485347
 20
210.1760514721972
 30
0.0
  0
SPLINE
  5
110
330
1F
100
AcDbEntity
  8
0
  6
Continuous
 62
     7
370
    15
100
AcDbSpline
210
0.0
220
0.0
230
1.0
 70
     8
 71
     3
 72
    12
 73
     8
 74
     0
 42
0.00000001
 43
0.00000001
 40
0.0
 40
0.0
 40
0.0
 40
0.0
 40
0.155553607216955
 40
0.3022025601964606
 40
0.5679660049298992
 40
0.7999450310488447
 40
1.0
 40
1.0
 40
1.0
 40
1.0
 10
246.5800455097095
 20
207.2190580599708
 30
0.0
 10
246.6205898446337
 20
207.2033085502729
 30
0.0
 10
246.6993575571591
 20
207.1727111103439
 30
0.0
 10
246.8289871150927
 20
207.077666602333
 30
0.0
 10
246.9434188063546
 20
206.9314941305281
 30
0.0
 10
247.0075638537442
 20
206.7372405382701
 30
0.0
 10
247.0004418044445
 20
206.6122624214163
 30
0.0
 10
246.9971439126865
 20
206.5543908335966
 30
0.0
  0
LINE
  5
111
330
1F
100
AcDbEntity
  8
0
  6
Continuous
 62
     7
370
    15
100
AcDbLine
 10
246.9963019971
 20
206.6043907487
 30
0.0
 11
246.9963019971
 21
206.3619958878
 31
0.0
  0
LINE
  5
112
330
1F
100
AcDbEntity
  8
0
  6
Continuous
 62
     7
370
    15
100
AcDbLine
 10
246.9963019971
 20
193.3619956196
 30
0.0
 11
246.9963019971
 21
192.945760087
 31
0.0
  0
LINE
  5
113
330
1F
100
AcDbEntity
  8
0
  6
Continuous
 62
     7
370
    15
100
AcDbLine
 10
249.9963006262
 20
192.945760087
 30
0.0
 11
249.9963006262
 21
193.3647402272
 31
0.0
  0
LINE
  5
114
330
1F
100
AcDbEntity
  8
0
  6
Continuous
 62
     7
370
    15
100
AcDbLine
 10
249.9963006262
 20
206.3592512802
 30
0.0
 11
249.9963006262
 21
206.6043907487
 31
0.0
  0
LINE
  5
115
330
1F
100
AcDbEntity
  8
0
  6
Continuous
 62
     7
370
    15
100
AcDbLine
 10
236.2955844287
 20
205.461995554
 30
0.0
 11
234.6773108724
 21
205.461995554
 31
0.0
  0
LINE
  5
116
330
1F
100
AcDbEntity
  8
0
  6
Continuous
 62
     7
370
    15
100
AcDbLine
 10
235.3042325262
 20
204.6619959817
 30
0.0
 11
236.2955844287
 21
204.6619959817
 31
0.0
  0
LINE
  5
117
330
1F
100
AcDbEntity
  8
0
  6
Continuous
 62
     7
370
    15
100
AcDbLine
 10
236.6338109855
 20
206.7301346631
 30
0.0
 11
236.3672813658
 21
205.5218875118
 31
0.0
  0
LINE
  5
118
330
1F
100
AcDbEntity
  8
0
  6
Continuous
 62
     7
370
    15
100
AcDbLine
 10
237.1354362253
 20
205.2903374367
 30
0.0
 11
237.4150267128
 21
206.5578069248
 31
0.0
  0
SPLINE
  5
119
330
1F
100
AcDbEntity
  8
0
  6
Continuous
 62
     7
370
    15
100
AcDbSpline
210
0.0
220
0.0
230
1.0
 70
     8
 71
     3
 72
    11
 73
     7
 74
     0
 42
0.00000001
 43
0.00000001
 40
0.0
 40
0.0
 40
0.0
 40
0.0
 40
0.2541309399275824
 40
0.5022690019548702
 40
0.7495126202113759
 40
1.0
 40
1.0
 40
1.0
 40
1.0
 10
236.2955844286815
 20
204.6619959817035
 30
0.0
 10
236.3956731731166
 20
204.6722420931817
 30
0.0
 10
236.5934903841521
 20
204.6924926938663
 30
0.0
 10
236.8516357103502
 20
204.8465251816361
 30
0.0
 10
237.0550846961858
 20
205.0655993143333
 30
0.0
 10
237.1168231775352
 20
205.2526490981934
 30
0.0
 10
237.1478935960666
 20
205.3467835009796
 30
0.0
  0
LINE
  5
11A
330
1F
100
AcDbEntity
  8
0
  6
Continuous
 62
     7
370
    15
100
AcDbLine
 10
246.2759202603
 20
206.3619958878
 30
0.0
 11
246.2759202603
 21
193.3619956196
 31
0.0
  0
LINE
  5
11B
330
1F
100
AcDbEntity
  8
0
  6
Continuous
 62
     7
370
    15
100
AcDbLine
 10
246.2759202603
 20
206.3619958878
 30
0.0
 11
248.9948978905
 21
206.3619958878
 31
0.0
  0
LWPOLYLINE
  5
11C
330
1F
100
AcDbEntity
  8
0
  6
Continuous
 62
     7
370
    15
100
AcDbPolyline
 90
        9
 70
   128
 43
0.0
 10
249.7254124168
 20
205.161995598
 10
249.711375523
 20
205.3961040162
 10
249.6698087338
 20
205.6212158584
 10
249.602299023
 20
205.8286800691
 10
249.5114540938
 20
206.0105240614
 10
249.4007533673
 20
206.1597591907
 10
249.2744585756
 20
206.270651304
 10
249.1374200467
 20
206.3389382035
 10
248.9948978905
 20
206.3619958878
  0
LINE
  5
11D
330
1F
100
AcDbEntity
  8
0
  6
Continuous
 62
     7
370
    15
100
AcDbLine
 10
249.7254124168
 20
205.161995598
 30
0.0
 11
249.7254124168
 21
194.5619959094
 31
0.0
  0
LWPOLYLINE
  5
11E
330
1F
100
AcDbEntity
  8
0
  6
Continuous
 62
     7
370
    15
100
AcDbPolyline
 90
        9
 70
   128
 43
0.0
 10
248.9948978905
 20
193.3619956196
 10
249.1374200467
 20
193.3850533039
 10
249.2744585756
 20
193.4533402034
 10
249.4007533673
 20
193.5642323167
 10
249.5114540938
 20
193.713467446
 10
249.602299023
 20
193.8953114384
 10
249.6698087338
 20
194.1027756491
 10
249.711375523
 20
194.3278874912
 10
249.7254124168
 20
194.5619959094
  0
LINE
  5
11F
330
1F
100
AcDbEntity
  8
0
  6
Continuous
 62
     7
370
    15
100
AcDbLine
 10
248.9948978905
 20
193.3619956196
 30
0.0
 11
246.2759202603
 21
193.3619956196
 31
0.0
  0
LINE
  5
120
330
1F
100
AcDbEntity
  8
0
  6
Continuous
 62
     7
370
    15
100
AcDbLine
 10
249.9469256286
 20
193.3619956196
 30
0.0
 11
248.9948978905
 21
193.3619956196
 31
0.0
  0
LINE
  5
121
330
1F
100
AcDbEntity
  8
0
  6
Continuous
 62
     7
370
    15
100
AcDbLine
 10
249.7254124168
 20
194.5619959094
 30
0.0
 11
250.6774401549
 21
194.5619959094
 31
0.0
  0
LWPOLYLINE
  5
122
330
1F
100
AcDbEntity
  8
0
  6
Continuous
 62
     7
370
    15
100
AcDbPolyline
 90
        9
 70
   128
 43
0.0
 10
250.6774401549
 20
194.5619959094
 10
250.6634032611
 20
194.3278874912
 10
250.6218290213
 20
194.1027756491
 10
250.5543267611
 20
193.8953114384
 10
250.4634743813
 20
193.713467446
 10
250.3527736548
 20
193.5642323167
 10
250.2264788631
 20
193.4533402034
 10
250.0894403342
 20
193.3850533039
 10
249.9469256286
 20
193.3619956196
  0
LINE
  5
123
330
1F
100
AcDbEntity
  8
0
  6
Continuous
 62
     7
370
    15
100
AcDbLine
 10
250.6774401549
 20
205.161995598
 30
0.0
 11
249.7254124168
 21
205.161995598
 31
0.0
  0
LINE
  5
124
330
1F
100
AcDbEntity
  8
0
  6
Continuous
 62
     7
370
    15
100
AcDbLine
 10
250.6774401549
 20
205.161995598
 30
0.0
 11
250.6774401549
 21
194.5619959094
 31
0.0
  0
LINE
  5
125
330
1F
100
AcDbEntity
  8
0
  6
Continuous
 62
     7
370
    15
100
AcDbLine
 10
248.9948978905
 20
206.3619958878
 30
0.0
 11
249.9469256286
 21
206.3619958878
 31
0.0
  0
LWPOLYLINE
  5
126
330
1F
100
AcDbEntity
  8
0
  6
Continuous
 62
     7
370
    15
100
AcDbPolyline
 90
        9
 70
   128
 43
0.0
 10
249.9469256286
 20
206.3619958878
 10
250.0894403342
 20
206.3389382035
 10
250.2264788631
 20
206.270651304
 10
250.3527736548
 20
206.1597591907
 10
250.4634743813
 20
206.0105240614
 10
250.5543267611
 20
205.8286800691
 10
250.6218290213
 20
205.6212158584
 10
250.6634032611
 20
205.3961040162
 10
250.6774401549
 20
205.161995598
  0
LINE
  5
127
330
1F
100
AcDbEntity
  8
0
  6
Continuous
 62
     7
370
    15
100
AcDbLine
 10
245.6973081712
 20
206.3619958878
 30
0.0
 11
246.2759202603
 21
206.3619958878
 31
0.0
  0
LINE
  5
128
330
1F
100
AcDbEntity
  8
0
  6
Continuous
 62
     7
370
    15
100
AcDbLine
 10
246.2759202603
 20
193.3619956196
 30
0.0
 11
245.6973081712
 21
193.3619956196
 31
0.0
  0
LINE
  5
129
330
1F
100
AcDbEntity
  8
0
  6
Continuous
 62
     7
370
    15
100
AcDbLine
 10
255.7973077778
 20
192.9619958334
 30
0.0
 11
256.5973138694
 21
192.9619958334
 31
0.0
  0
LINE
  5
12A
330
1F
100
AcDbEntity
  8
0
  6
Continuous
 62
     7
370
    15
100
AcDbLine
 10
256.5973138694
 20
192.9619958334
 30
0.0
 11
256.5973138694
 21
194.4619956136
 31
0.0
  0
LINE
  5
12B
330
1F
100
AcDbEntity
  8
0
  6
Continuous
 62
     7
370
    15
100
AcDbLine
 10
256.5973138694
 20
194.4619956136
 30
0.0
 11
258.0973094586
 21
194.4619956136
 31
0.0
  0
LINE
  5
12C
330
1F
100
AcDbEntity
  8
0
  6
Continuous
 62
     7
370
    15
100
AcDbLine
 10
258.0973094586
 20
194.4619956136
 30
0.0
 11
258.0973094586
 21
195.2619956516
 31
0.0
  0
LINE
  5
12D
330
1F
100
AcDbEntity
  8
0
  6
Continuous
 62
     7
370
    15
100
AcDbLine
 10
258.0973094586
 20
195.2619956516
 30
0.0
 11
256.5973138694
 21
195.2619956516
 31
0.0
  0
LINE
  5
12E
330
1F
100
AcDbEntity
  8
0
  6
Continuous
 62
     7
370
    15
100
AcDbLine
 10
256.5973138694
 20
195.2619956516
 30
0.0
 11
256.5973138694
 21
196.7619956647
 31
0.0
  0
LINE
  5
12F
330
1F
100
AcDbEntity
  8
0
  6
Continuous
 62
     7
370
    15
100
AcDbLine
 10
255.7973077778
 20
195.2619956516
 30
0.0
 11
254.2973121885
 21
195.2619956516
 31
0.0
  0
LINE
  5
130
330
1F
100
AcDbEntity
  8
0
  6
Continuous
 62
     7
370
    15
100
AcDbLine
 10
254.2973121885
 20
194.4619956136
 30
0.0
 11
255.7973077778
 21
194.4619956136
 31
0.0
  0
LINE
  5
131
330
1F
100
AcDbEntity
  8
0
  6
Continuous
 62
     7
370
    15
100
AcDbLine
 10
255.7973077778
 20
196.7619956647
 30
0.0
 11
255.7973077778
 21
195.2619956516
 31
0.0
  0
LINE
  5
132
330
1F
100
AcDbEntity
  8
0
  6
Continuous
 62
     7
370
    15
100
AcDbLine
 10
255.7973077778
 20
194.4619956136
 30
0.0
 11
255.7973077778
 21
192.9619958334
 31
0.0
  0
LINE
  5
133
330
1F
100
AcDbEntity
  8
0
  6
Continuous
 62
     7
370
    15
100
AcDbLine
 10
254.2973121885
 20
195.2619956516
 30
0.0
 11
254.2973121885
 21
194.4619956136
 31
0.0
  0
CIRCLE
  5
134
330
1F
100
AcDbEntity
  8
0
  6
Continuous
 62
     7
370
    15
100
AcDbCircle
 10
256.1973106865
 20
194.8619957537
 30
0.0
 40
3.0
  0
LINE
  5
135
330
1F
100
AcDbEntity
  8
0
  6
Continuous
 62
     7
370
    15
100
AcDbLine
 10
256.5973138694
 20
196.7619956647
 30
0.0
 11
255.7973077778
 21
196.7619956647
 31
0.0
  0
LINE
  5
136
330
1F
100
AcDbEntity
  8
0
  6
Continuous
 62
     7
370
    15
100
AcDbLine
 10
256.5973138694
 20
202.9619958428
 30
0.0
 11
256.5973138694
 21
204.4619958558
 31
0.0
  0
LINE
  5
137
330
1F
100
AcDbEntity
  8
0
  6
Continuous
 62
     7
370
    15
100
AcDbLine
 10
256.5973138694
 20
204.4619958558
 30
0.0
 11
258.0973094586
 21
204.4619958558
 31
0.0
  0
LINE
  5
138
330
1F
100
AcDbEntity
  8
0
  6
Continuous
 62
     7
370
    15
100
AcDbLine
 10
258.0973094586
 20
204.4619958558
 30
0.0
 11
258.0973094586
 21
205.2619958938
 31
0.0
  0
LINE
  5
139
330
1F
100
AcDbEntity
  8
0
  6
Continuous
 62
     7
370
    15
100
AcDbLine
 10
258.0973094586
 20
205.2619958938
 30
0.0
 11
256.5973138694
 21
205.2619958938
 31
0.0
  0
LINE
  5
13A
330
1F
100
AcDbEntity
  8
0
  6
Continuous
 62
     7
370
    15
100
AcDbLine
 10
256.5973138694
 20
205.2619958938
 30
0.0
 11
256.5973138694
 21
206.761995674
 31
0.0
  0
LINE
  5
13B
330
1F
100
AcDbEntity
  8
0
  6
Continuous
 62
     7
370
    15
100
AcDbLine
 10
255.7973077778
 20
205.2619958938
 30
0.0
 11
254.2973121885
 21
205.2619958938
 31
0.0
  0
LINE
  5
13C
330
1F
100
AcDbEntity
  8
0
  6
Continuous
 62
     7
370
    15
100
AcDbLine
 10
255.7973077778
 20
204.4619958558
 30
0.0
 11
255.7973077778
 21
202.9619958428
 31
0.0
  0
CIRCLE
  5
13D
330
1F
100
AcDbEntity
  8
0
  6
Continuous
 62
     7
370
    15
100
AcDbCircle
 10
256.1973106865
 20
204.8619957537
 30
0.0
 40
2.999999999999943
  0
LINE
  5
13E
330
1F
100
AcDbEntity
  8
0
  6
Continuous
 62
     7
370
    15
100
AcDbLine
 10
256.5973138694
 20
206.761995674
 30
0.0
 11
255.7973077778
 21
206.761995674
 31
0.0
  0
LINE
  5
13F
330
1F
100
AcDbEntity
  8
0
  6
Continuous
 62
     7
370
    15
100
AcDbLine
 10
255.7973077778
 20
206.761995674
 30
0.0
 11
255.7973077778
 21
205.2619958938
 31
0.0
  0
LINE
  5
140
330
1F
100
AcDbEntity
  8
0
  6
Continuous
 62
     7
370
    15
100
AcDbLine
 10
254.2973121885
 20
205.2619958938
 30
0.0
 11
254.2973121885
 21
204.4619958558
 31
0.0
  0
LINE
  5
141
330
1F
100
AcDbEntity
  8
0
  6
Continuous
 62
     7
370
    15
100
AcDbLine
 10
255.7973077778
 20
202.9619958428
 30
0.0
 11
256.5973138694
 21
202.9619958428
 31
0.0
  0
LINE
  5
142
330
1F
100
AcDbEntity
  8
0
  6
Continuous
 62
     7
370
    15
100
AcDbLine
 10
254.2973121885
 20
204.4619958558
 30
0.0
 11
255.7973077778
 21
204.4619958558
 31
0.0
  0
LINE
  5
143
330
1F
100
AcDbEntity
  8
0
  6
Continuous
 62
     7
370
    15
100
AcDbLine
 10
255.1795428876
 20
188.760110055
 30
0.0
 11
250.1973098401
 21
193.3619956196
 31
0.0
  0
ARC
  5
144
330
1F
100
AcDbEntity
  8
0
  6
Continuous
 62
     7
370
    15
100
AcDbCircle
 10
245.6973106865
 20
199.8619957537
 30
0.0
 40
16.00000000000003
100
AcDbArc
 50
316.3971810272
 51
43.6028189726
  0
ARC
  5
145
330
1F
100
AcDbEntity
  8
0
  6
Continuous
 62
     7
370
    15
100
AcDbCircle
 10
256.1973106865
 20
189.8619957537
 30
0.0
 40
1.500000000000051
100
AcDbArc
 50
227.2726046868
 51
316.3971810272
  0
ARC
  5
146
330
1F
100
AcDbEntity
  8
0
  6
Continuous
 62
     7
370
    15
100
AcDbCircle
 10
256.1973106865
 20
209.8619957537
 30
0.0
 40
1.500000000000013
100
AcDbArc
 50
43.6028189726
 51
132.7273953127
  0
LINE
  5
147
330
1F
100
AcDbEntity
  8
0
  6
Continuous
 62
     7
370
    15
100
AcDbLine
 10
250.1973098401
 20
206.3619958878
 30
0.0
 11
255.1795428876
 21
210.9638814525
 31
0.0
  0
LINE
  5
148
330
1F
100
AcDbEntity
  8
0
  6
Continuous
 62
     7
370
    15
100
AcDbLine
 10
249.9963006262
 20
206.3619958878
 30
0.0
 11
250.1973098401
 21
206.3619958878
 31
0.0
  0
LINE
  5
149
330
1F
100
AcDbEntity
  8
0
  6
Continuous
 62
     7
370
    15
100
AcDbLine
 10
250.1973098401
 20
193.3619956196
 30
0.0
 11
249.9963006262
 21
193.3619956196
 31
0.0
  0
LINE
  5
14A
330
1F
100
AcDbEntity
  8
0
  6
Continuous
 62
     7
370
    15
100
AcDbLine
 10
253.1973084692
 20
334.8620011181
 30
0.0
 11
258.1973111514
 21
334.8620011181
 31
0.0
  0
LINE
  5
14B
330
1F
100
AcDbEntity
  8
0
  6
Continuous
 62
     7
370
    15
100
AcDbLine
 10
253.1973084692
 20
349.8620017142
 30
0.0
 11
258.1973111514
 21
349.8620017142
 31
0.0
  0
LINE
  5
14C
330
1F
100
AcDbEntity
  8
0
  6
Continuous
 62
     7
370
    15
100
AcDbLine
 10
258.1973111514
 20
334.8620011181
 30
0.0
 11
258.1973111514
 21
349.8620017142
 31
0.0
  0
LINE
  5
14D
330
1F
100
AcDbEntity
  8
0
  6
Continuous
 62
     7
370
    15
100
AcDbLine
 10
253.1973084692
 20
334.8620011181
 30
0.0
 11
253.1973084692
 21
349.8620017142
 31
0.0
  0
LINE
  5
14E
330
1F
100
AcDbEntity
  8
0
  6
Continuous
 62
     7
370
    15
100
AcDbLine
 10
258.1973111514
 20
334.8620011181
 30
0.0
 11
273.1973117474
 21
334.8620011181
 31
0.0
  0
ARC
  5
14F
330
1F
100
AcDbEntity
  8
0
  6
Continuous
 62
     7
370
    15
100
AcDbCircle
 10
258.1973106865
 20
334.8619957537
 30
0.0
 40
15.0
100
AcDbArc
 50
0.0
 51
90.0
  0
LINE
  5
150
330
1F
100
AcDbEntity
  8
0
  6
Continuous
 62
     7
370
    15
100
AcDbLine
 10
258.1973111514
 20
209.849487868
 30
0.0
 11
258.1973111514
 21
334.8620011181
 31
0.0
  0
LINE
  5
151
330
1F
100
AcDbEntity
  8
0
  6
Continuous
 62
     7
370
    15
100
AcDbLine
 10
253.1973084692
 20
209.1329729826
 30
0.0
 11
253.1973084692
 21
334.8620011181
 31
0.0
  0
LINE
  5
152
330
1F
100
AcDbEntity
  8
0
  6
Continuous
 62
     7
370
    15
100
AcDbLine
 10
258.1973111514
 20
189.8745036394
 30
0.0
 11
258.1973111514
 21
64.8619903893
 31
0.0
  0
LINE
  5
153
330
1F
100
AcDbEntity
  8
0
  6
Continuous
 62
     7
370
    15
100
AcDbLine
 10
273.1973117474
 20
64.8619903893
 30
0.0
 11
273.1973117474
 21
334.8620011181
 31
0.0
  0
LINE
  5
154
330
1F
100
AcDbEntity
  8
0
  6
Continuous
 62
     7
370
    15
100
AcDbLine
 10
258.1973111514
 20
64.8619903893
 30
0.0
 11
273.1973117474
 21
64.8619903893
 31
0.0
  0
LINE
  5
155
330
1F
100
AcDbEntity
  8
0
  6
Continuous
 62
     7
370
    15
100
AcDbLine
 10
253.1973084692
 20
64.8619903893
 30
0.0
 11
258.1973111514
 21
64.8619903893
 31
0.0
  0
LINE
  5
156
330
1F
100
AcDbEntity
  8
0
  6
Continuous
 62
     7
370
    15
100
AcDbLine
 10
253.1973084692
 20
190.5910185248
 30
0.0
 11
253.1973084692
 21
64.8619903893
 31
0.0
  0
LINE
  5
157
330
1F
100
AcDbEntity
  8
0
  6
Continuous
 62
     7
370
    15
100
AcDbLine
 10
253.1973084692
 20
49.8619897933
 30
0.0
 11
258.1973111514
 21
49.8619897933
 31
0.0
  0
LINE
  5
158
330
1F
100
AcDbEntity
  8
0
  6
Continuous
 62
     7
370
    15
100
AcDbLine
 10
258.1973111514
 20
64.8619903893
 30
0.0
 11
258.1973111514
 21
49.8619897933
 31
0.0
  0
LINE
  5
159
330
1F
100
AcDbEntity
  8
0
  6
Continuous
 62
     7
370
    15
100
AcDbLine
 10
253.1973084692
 20
64.8619903893
 30
0.0
 11
253.1973084692
 21
49.8619897933
 31
0.0
  0
ARC
  5
15A
330
1F
100
AcDbEntity
  8
0
  6
Continuous
 62
     7
370
    15
100
AcDbCircle
 10
258.1973106865
 20
64.8619957537
 30
0.0
 40
15.00000000000006
100
AcDbArc
 50
270.0
 51
0.0
  0
LINE
  5
15B
330
1F
100
AcDbEntity
  8
0
  6
Continuous
 62
     7
370
    15
100
AcDbLine
 10
236.4082372073
 20
195.1619958215
 30
0.0
 11
236.4082372073
 21
203.7619956479
 31
0.0
  0
LINE
  5
15C
330
1F
100
AcDbEntity
  8
0
  6
Continuous
 62
     7
370
    15
100
AcDbLine
 10
230.8939432982
 20
195.1619958215
 30
0.0
 11
230.8939432982
 21
203.7619956479
 31
0.0
  0
LINE
  5
15D
330
1F
100
AcDbEntity
  8
0
  6
Continuous
 62
     7
370
    15
100
AcDbLine
 10
236.4082372073
 20
203.7619956479
 30
0.0
 11
230.8939432982
 21
203.7619956479
 31
0.0
  0
LINE
  5
15E
330
1F
100
AcDbEntity
  8
0
  6
Continuous
 62
     7
370
    15
100
AcDbLine
 10
236.4082372073
 20
195.1619958215
 30
0.0
 11
230.8939432982
 21
195.1619958215
 31
0.0
  0
LINE
  5
15F
330
1F
100
AcDbEntity
  8
0
  6
Continuous
 62
     7
370
    15
100
AcDbLine
 10
229.7796866182
 20
207.06199563
 30
0.0
 11
204.9675768498
 21
207.06199563
 31
0.0
  0
LINE
  5
160
330
1F
100
AcDbEntity
  8
0
  6
Continuous
 62
     7
370
    15
100
AcDbLine
 10
229.7796866182
 20
203.7619956479
 30
0.0
 11
229.7796866182
 21
207.06199563
 31
0.0
  0
LINE
  5
161
330
1F
100
AcDbEntity
  8
0
  6
Continuous
 62
     7
370
    15
100
AcDbLine
 10
229.7796866182
 20
192.6619958774
 30
0.0
 11
229.7796866182
 21
195.1619958215
 31
0.0
  0
LINE
  5
162
330
1F
100
AcDbEntity
  8
0
  6
Continuous
 62
     7
370
    15
100
AcDbLine
 10
204.9675768498
 20
192.6619958774
 30
0.0
 11
229.7796866182
 21
192.6619958774
 31
0.0
  0
LINE
  5
163
330
1F
100
AcDbEntity
  8
0
  6
Continuous
 62
     7
370
    15
100
AcDbLine
 10
204.9675768498
 20
192.6619958774
 30
0.0
 11
204.9675768498
 21
207.06199563
 31
0.0
  0
LINE
  5
164
330
1F
100
AcDbEntity
  8
0
  6
Continuous
 62
     7
370
    15
100
AcDbLine
 10
229.7796866182
 20
203.7619956479
 30
0.0
 11
230.8939432982
 21
203.7619956479
 31
0.0
  0
LINE
  5
165
330
1F
100
AcDbEntity
  8
0
  6
Continuous
 62
     7
370
    15
100
AcDbLine
 10
229.7796866182
 20
195.1619958215
 30
0.0
 11
230.8939432982
 21
195.1619958215
 31
0.0
  0
LINE
  5
166
330
1F
100
AcDbEntity
  8
0
  6
Continuous
 62
     7
370
    15
100
AcDbLine
 10
229.9073076133
 20
191.8646449865
 30
0.0
 11
231.799539018
 21
191.8646449865
 31
0.0
  0
LINE
  5
167
330
1F
100
AcDbEntity
  8
0
  6
Continuous
 62
     7
370
    15
100
AcDbLine
 10
231.799539018
 20
191.8646449865
 30
0.0
 11
232.4722966436
 21
191.8619953737
 31
0.0
  0
LINE
  5
168
330
1F
100
AcDbEntity
  8
0
  6
Continuous
 62
     7
370
    15
100
AcDbLine
 10
232.4722966436
 20
191.8619953737
 30
0.0
 11
205.1064966504
 21
191.8619953737
 31
0.0
  0
ARC
  5
169
330
1F
100
AcDbEntity
  8
0
  6
Continuous
 62
     7
370
    15
100
AcDbCircle
 10
206.2235210812
 20
192.4680282041
 30
0.0
 40
1.270834123965093
100
AcDbArc
 50
171.2206182958
 51
208.4816967507
  0
ARC
  5
16A
330
1F
100
AcDbEntity
  8
0
  6
Continuous
 62
     7
370
    15
100
AcDbCircle
 10
231.2540766847
 20
192.4890925107
 30
0.0
 40
1.484493732680815
100
AcDbArc
 50
173.3114100657
 51
204.8754288142
  0
LINE
  5
16B
330
1F
100
AcDbEntity
  8
0
  6
Continuous
 62
     7
370
    15
100
AcDbLine
 10
231.799539018
 20
207.859346521
 30
0.0
 11
229.9073076133
 21
207.859346521
 31
0.0
  0
ARC
  5
16C
330
1F
100
AcDbEntity
  8
0
  6
Continuous
 62
     7
370
    15
100
AcDbCircle
 10
231.2540766847
 20
207.2348989967
 30
0.0
 40
1.484493732680811
100
AcDbArc
 50
155.1245711858
 51
186.6885899343
  0
ARC
  5
16D
330
1F
100
AcDbEntity
  8
0
  6
Continuous
 62
     7
370
    15
100
AcDbCircle
 10
206.2235210812
 20
207.2559633033
 30
0.0
 40
1.270834123965093
100
AcDbArc
 50
151.5183032493
 51
188.7793817042
  0
LINE
  5
16E
330
1F
100
AcDbEntity
  8
0
  6
Continuous
 62
     7
370
    15
100
AcDbLine
 10
205.1064966504
 20
207.8619961337
 30
0.0
 11
232.4722966436
 21
207.8619961337
 31
0.0
  0
LINE
  5
16F
330
1F
100
AcDbEntity
  8
0
  6
Continuous
 62
     7
370
    15
100
AcDbLine
 10
232.4722966436
 20
207.8619961337
 30
0.0
 11
231.799539018
 21
207.859346521
 31
0.0
  0
LINE
  5
170
330
1F
100
AcDbEntity
  8
0
  6
Continuous
 62
     7
370
    15
100
AcDbLine
 10
229.9073076133
 20
191.8646449865
 30
0.0
 11
229.9073076133
 21
192.6619958774
 31
0.0
  0
LINE
  5
171
330
1F
100
AcDbEntity
  8
0
  6
Continuous
 62
     7
370
    15
100
AcDbLine
 10
229.918610144
 20
195.1619958215
 30
0.0
 11
229.918610144
 21
192.6619958774
 31
0.0
  0
LINE
  5
172
330
1F
100
AcDbEntity
  8
0
  6
Continuous
 62
     7
370
    15
100
AcDbLine
 10
229.9073076133
 20
207.06199563
 30
0.0
 11
229.9073076133
 21
207.859346521
 31
0.0
  0
LINE
  5
173
330
1F
100
AcDbEntity
  8
0
  6
Continuous
 62
     7
370
    15
100
AcDbLine
 10
229.918610144
 20
207.06199563
 30
0.0
 11
229.918610144
 21
203.7619956479
 31
0.0
  0
LINE
  5
174
330
1F
100
AcDbEntity
  8
0
  6
Continuous
 62
     7
370
    15
100
AcDbLine
 10
231.799539018
 20
207.06199563
 30
0.0
 11
231.799539018
 21
207.859346521
 31
0.0
  0
LINE
  5
175
330
1F
100
AcDbEntity
  8
0
  6
Continuous
 62
     7
370
    15
100
AcDbLine
 10
235.907312322
 20
207.8619961337
 30
0.0
 11
232.4722966436
 21
207.8619961337
 31
0.0
  0
LINE
  5
176
330
1F
100
AcDbEntity
  8
0
  6
Continuous
 62
     7
370
    15
100
AcDbLine
 10
235.907312322
 20
207.06199563
 30
0.0
 11
231.799539018
 21
207.06199563
 31
0.0
  0
LINE
  5
177
330
1F
100
AcDbEntity
  8
0
  6
Continuous
 62
     7
370
    15
100
AcDbLine
 10
235.907312322
 20
191.8619953737
 30
0.0
 11
232.4722966436
 21
191.8619953737
 31
0.0
  0
LINE
  5
178
330
1F
100
AcDbEntity
  8
0
  6
Continuous
 62
     7
370
    15
100
AcDbLine
 10
231.799539018
 20
191.8646449865
 30
0.0
 11
231.799539018
 21
192.6619958774
 31
0.0
  0
LINE
  5
179
330
1F
100
AcDbEntity
  8
0
  6
Continuous
 62
     7
370
    15
100
AcDbLine
 10
235.907312322
 20
192.6619958774
 30
0.0
 11
231.799539018
 21
192.6619958774
 31
0.0
  0
LINE
  5
17A
330
1F
100
AcDbEntity
  8
0
  6
Continuous
 62
     7
370
    15
100
AcDbLine
 10
229.9073076133
 20
207.06199563
 30
0.0
 11
231.799539018
 21
207.06199563
 31
0.0
  0
LINE
  5
17B
330
1F
100
AcDbEntity
  8
0
  6
Continuous
 62
     7
370
    15
100
AcDbLine
 10
229.9073076133
 20
192.6619958774
 30
0.0
 11
231.799539018
 21
192.6619958774
 31
0.0
  0
LINE
  5
17C
330
1F
100
AcDbEntity
  8
0
  6
Continuous
 62
     7
370
    15
100
AcDbLine
 10
230.9773078445
 20
208.1619956241
 30
0.0
 11
235.3773078207
 21
208.1619956241
 31
0.0
  0
LINE
  5
17D
330
1F
100
AcDbEntity
  8
0
  6
Continuous
 62
     7
370
    15
100
AcDbLine
 10
231.0773095373
 20
191.4619960532
 30
0.0
 11
235.2773135785
 21
191.4619960532
 31
0.0
  0
LINE
  5
17E
330
1F
100
AcDbEntity
  8
0
  6
Continuous
 62
     7
370
    15
100
AcDbLine
 10
231.0773095373
 20
191.0619958014
 30
0.0
 11
235.2773135785
 21
191.0619958014
 31
0.0
  0
ARC
  5
17F
330
1F
100
AcDbEntity
  8
0
  6
Continuous
 62
     7
370
    15
100
AcDbCircle
 10
213.3732549257
 20
199.8619957537
 30
0.0
 40
16.90403995399238
100
AcDbArc
 50
154.7902236235
 51
205.2097763765
  0
SPLINE
  5
180
330
1F
100
AcDbEntity
  8
0
  6
Continuous
 62
     7
370
    15
100
AcDbSpline
210
0.0
220
0.0
230
1.0
 70
     8
 71
     3
 72
    12
 73
     8
 74
     0
 42
0.00000001
 43
0.00000001
 40
0.0
 40
0.0
 40
0.0
 40
0.0
 40
0.1818723398322498
 40
0.3633441453432144
 40
0.5550803379662396
 40
0.7712613770059432
 40
1.0
 40
1.0
 40
1.0
 40
1.0
 10
198.2116287831203
 20
191.8619953737361
 30
0.0
 10
198.2354896108873
 20
191.8693170234997
 30
0.0
 10
198.2831587181314
 20
191.8839441986839
 30
0.0
 10
198.2978958031876
 20
191.9959341915672
 30
0.0
 10
198.2706717764125
 20
192.1653258837268
 30
0.0
 10
198.1989915238748
 20
192.3937502944446
 30
0.0
 10
198.1199082616879
 20
192.5709139050778
 30
0.0
 10
198.0792505923644
 20
192.6619958773953
 30
0.0
  0
LINE
  5
181
330
1F
100
AcDbEntity
  8
0
  6
Continuous
 62
     7
370
    15
100
AcDbLine
 10
197.827264506
 20
192.616494716
 30
0.0
 11
198.1817109767
 21
191.8619953737
 31
0.0
  0
ARC
  5
182
330
1F
100
AcDbEntity
  8
0
  6
Continuous
 62
     7
370
    15
100
AcDbCircle
 10
213.0979714471
 20
199.8619957537
 30
0.0
 40
16.90241922828412
100
AcDbArc
 50
154.6170368419
 51
205.3829631581
  0
LINE
  5
183
330
1F
100
AcDbEntity
  8
0
  6
Continuous
 62
     7
370
    15
100
AcDbLine
 10
198.1817109767
 20
207.8619961337
 30
0.0
 11
197.827264506
 21
207.1074967914
 31
0.0
  0
SPLINE
  5
184
330
1F
100
AcDbEntity
  8
0
  6
Continuous
 62
     7
370
    15
100
AcDbSpline
210
0.0
220
0.0
230
1.0
 70
     8
 71
     3
 72
    12
 73
     8
 74
     0
 42
0.00000001
 43
0.00000001
 40
0.0
 40
0.0
 40
0.0
 40
0.0
 40
0.2510216974581
 40
0.5023984045762419
 40
0.7402768941595013
 40
0.9473179129745757
 40
1.0
 40
1.0
 40
1.0
 40
1.0
 10
198.0792505923644
 20
207.0619956300361
 30
0.0
 10
198.1235672882569
 20
207.1618778878853
 30
0.0
 10
198.2122633553216
 20
207.3617836629521
 30
0.0
 10
198.2872714830764
 20
207.6205169937997
 30
0.0
 10
198.2987512434263
 20
207.7977517867852
 30
0.0
 10
198.2571193077569
 20
207.8581948643003
 30
0.0
 10
198.2193000249321
 20
207.8613551110438
 30
0.0
 10
198.2116287831203
 20
207.8619961336953
 30
0.0
  0
LINE
  5
185
330
1F
100
AcDbEntity
  8
0
  6
Continuous
 62
     7
370
    15
100
AcDbLine
 10
198.2116287831
 20
207.8619961337
 30
0.0
 11
198.1817109767
 21
207.8619961337
 31
0.0
  0
LINE
  5
186
330
1F
100
AcDbEntity
  8
0
  6
Continuous
 62
     7
370
    15
100
AcDbLine
 10
198.2116287831
 20
191.8619953737
 30
0.0
 11
198.1817109767
 21
191.8619953737
 31
0.0
  0
LINE
  5
187
330
1F
100
AcDbEntity
  8
0
  6
Continuous
 62
     7
370
    15
100
AcDbLine
 10
200.0687307004
 20
207.06199563
 30
0.0
 11
198.0792505924
 21
207.06199563
 31
0.0
  0
LINE
  5
188
330
1F
100
AcDbEntity
  8
0
  6
Continuous
 62
     7
370
    15
100
AcDbLine
 10
200.0687307004
 20
192.6619958774
 30
0.0
 11
200.0687307004
 21
207.06199563
 31
0.0
  0
LINE
  5
189
330
1F
100
AcDbEntity
  8
0
  6
Continuous
 62
     7
370
    15
100
AcDbLine
 10
198.0792505924
 20
192.6619958774
 30
0.0
 11
200.0687307004
 21
192.6619958774
 31
0.0
  0
LWPOLYLINE
  5
18A
330
1F
100
AcDbEntity
  8
0
  6
Continuous
 62
     7
370
    15
100
AcDbPolyline
 90
        9
 70
   128
 43
0.0
 10
200.0687307004
 20
207.06199563
 10
200.0634705905
 20
207.2180680641
 10
200.0479026023
 20
207.3681423151
 10
200.0226153318
 20
207.5064520993
 10
199.9885885302
 20
207.6276809619
 10
199.9471260492
 20
207.7271713585
 10
199.899822313
 20
207.8010997445
 10
199.8484915379
 20
207.8466237233
 10
199.7951118533
 20
207.8619961337
  0
LINE
  5
18B
330
1F
100
AcDbEntity
  8
0
  6
Continuous
 62
     7
370
    15
100
AcDbLine
 10
198.2116287831
 20
207.8619961337
 30
0.0
 11
199.7951118533
 21
207.8619961337
 31
0.0
  0
LWPOLYLINE
  5
18C
330
1F
100
AcDbEntity
  8
0
  6
Continuous
 62
     7
370
    15
100
AcDbPolyline
 90
        9
 70
   128
 43
0.0
 10
200.0687307004
 20
192.6619958774
 10
200.0634705905
 20
192.5059234434
 10
200.0479026023
 20
192.3558491924
 10
200.0226153318
 20
192.2175394081
 10
199.9885885302
 20
192.0963105456
 10
199.9471260492
 20
191.9968201489
 10
199.899822313
 20
191.9228917629
 10
199.8484915379
 20
191.8773677842
 10
199.7951118533
 20
191.8619953737
  0
LINE
  5
18D
330
1F
100
AcDbEntity
  8
0
  6
Continuous
 62
     7
370
    15
100
AcDbLine
 10
199.7951118533
 20
191.8619953737
 30
0.0
 11
198.2116287831
 21
191.8619953737
 31
0.0
  0
LINE
  5
18E
330
1F
100
AcDbEntity
  8
0
  6
Continuous
 62
     7
370
    15
100
AcDbLine
 10
200.0687307004
 20
192.6619958774
 30
0.0
 11
204.9675768498
 21
192.6619958774
 31
0.0
  0
LINE
  5
18F
330
1F
100
AcDbEntity
  8
0
  6
Continuous
 62
     7
370
    15
100
AcDbLine
 10
205.1064966504
 20
191.8619953737
 30
0.0
 11
199.7951118533
 21
191.8619953737
 31
0.0
  0
LINE
  5
190
330
1F
100
AcDbEntity
  8
0
  6
Continuous
 62
     7
370
    15
100
AcDbLine
 10
204.9675768498
 20
207.06199563
 30
0.0
 11
200.0687307004
 21
207.06199563
 31
0.0
  0
LINE
  5
191
330
1F
100
AcDbEntity
  8
0
  6
Continuous
 62
     7
370
    15
100
AcDbLine
 10
199.7951118533
 20
207.8619961337
 30
0.0
 11
205.1064966504
 21
207.8619961337
 31
0.0
  0
SPLINE
  5
192
330
1F
100
AcDbEntity
  8
0
  6
Continuous
 62
     7
370
    15
100
AcDbSpline
210
0.0
220
0.0
230
1.0
 70
     8
 71
     3
 72
    16
 73
    12
 74
     0
 42
0.00000001
 43
0.00000001
 40
0.0
 40
0.0
 40
0.0
 40
0.0
 40
0.1207071566778238
 40
0.2414138026719941
 40
0.3621183649329968
 40
0.4828244334300237
 40
0.6035304010997716
 40
0.7242373113019833
 40
0.844942319259683
 40
0.9656485835513967
 40
0.9999999999999999
 40
0.9999999999999999
 40
0.9999999999999999
 40
0.9999999999999999
 10
231.3496059063808
 20
186.9096242532832
 30
0.0
 10
231.3690100465339
 20
186.9122965463743
 30
0.0
 10
231.4078182447457
 20
186.9176411212506
 30
0.0
 10
231.4127379777913
 20
187.2085829275307
 30
0.0
 10
231.3755277058481
 20
187.6619333237629
 30
0.0
 10
231.2986119371099
 20
188.2294533493807
 30
0.0
 10
231.1947974312316
 20
188.8177816949186
 30
0.0
 10
231.0786899717695
 20
189.3444742267109
 30
0.0
 10
230.9716929891789
 20
189.7077659760003
 30
0.0
 10
230.8991164202299
 20
189.8782306860962
 30
0.0
 10
230.8795660676341
 20
189.8450801188655
 30
0.0
 10
230.8752348903552
 20
189.8377359554869
 30
0.0
  0
SPLINE
  5
193
330
1F
100
AcDbEntity
  8
0
  6
Continuous
 62
     7
370
    15
100
AcDbSpline
210
0.0
220
0.0
230
1.0
 70
     8
 71
     3
 72
    16
 73
    12
 74
     0
 42
0.00000001
 43
0.00000001
 40
0.0
 40
0.0
 40
0.0
 40
0.0
 40
0.1205802411602237
 40
0.2411629109963146
 40
0.3617457346389094
 40
0.4823269915945776
 40
0.6029090903734641
 40
0.7234904472457391
 40
0.8440739113133716
 40
0.964656251032841
 40
1.0
 40
1.0
 40
1.0
 40
1.0
 10
231.520194399728
 20
212.7856480599148
 30
0.0
 10
231.5395994115999
 20
212.7829752481707
 30
0.0
 10
231.5784098261914
 20
212.777629570848
 30
0.0
 10
231.58331594401
 20
212.4866855715109
 30
0.0
 10
231.5461101735125
 20
212.0333468428718
 30
0.0
 10
231.46919331786
 20
211.4658174206971
 30
0.0
 10
231.3653751851557
 20
210.8774859530018
 30
0.0
 10
231.2492858572685
 20
210.3508290845189
 30
0.0
 10
231.1422552466472
 20
209.9873573406736
 30
0.0
 10
231.0695050754959
 20
209.8168094112903
 30
0.0
 10
231.0498531910444
 20
209.8503948086871
 30
0.0
 10
231.0453987006084
 20
209.8580076069338
 30
0.0
  0
SPLINE
  5
194
330
1F
100
AcDbEntity
  8
0
  6
Continuous
 62
     7
370
    15
100
AcDbSpline
210
0.0
220
0.0
230
1.0
 70
     8
 71
     3
 72
    16
 73
    12
 74
     0
 42
0.00000001
 43
0.00000001
 40
0.0
 40
0.0
 40
0.0
 40
0.0
 40
0.1205149578428766
 40
0.2410324495601319
 40
0.3615498425755169
 40
0.4820660117024153
 40
0.6025828261582217
 40
0.7230988991090922
 40
0.8436170781144643
 40
0.9641341610538745
 40
1.0
 40
1.0
 40
1.0
 40
1.0
 10
246.8905782584087
 20
189.5260427788598
 30
0.0
 10
246.9099824821292
 20
189.5287155262075
 30
0.0
 10
246.9487913375514
 20
189.5340610770986
 30
0.0
 10
246.9537092538624
 20
189.8250061357273
 30
0.0
 10
246.916503323567
 20
190.2783449965575
 30
0.0
 10
246.8395749533805
 20
190.8458713021342
 30
0.0
 10
246.7357589153243
 20
191.4342106921283
 30
0.0
 10
246.6196725094342
 20
191.9608403257683
 30
0.0
 10
246.5126280515215
 20
192.3244134347745
 30
0.0
 10
246.4397755571433
 20
192.4950057875901
 30
0.0
 10
246.4200829242431
 20
192.4611908334483
 30
0.0
 10
246.4155664924518
 20
192.4534355000359
 30
0.0
  0
SPLINE
  5
195
330
1F
100
AcDbEntity
  8
0
  6
Continuous
 62
     7
370
    15
100
AcDbSpline
210
0.0
220
0.0
230
1.0
 70
     8
 71
     3
 72
    16
 73
    12
 74
     0
 42
0.00000001
 43
0.00000001
 40
0.0
 40
0.0
 40
0.0
 40
0.0
 40
0.1205148032021358
 40
0.2410321808312816
 40
0.3615495485090808
 40
0.4820656771210895
 40
0.6025824662394319
 40
0.723098808852727
 40
0.8436169625203481
 40
0.9641311157927398
 40
1.0
 40
1.0
 40
1.0
 40
1.0
 10
247.0611667517558
 20
210.1692295343382
 30
0.0
 10
247.0805677710688
 20
210.1665566878563
 30
0.0
 10
247.1193702241377
 20
210.1612109377953
 30
0.0
 10
247.1242914966067
 20
209.8702671819234
 30
0.0
 10
247.0870816970133
 20
209.4169285320209
 30
0.0
 10
247.0101654777808
 20
208.8494007479256
 30
0.0
 10
246.906349296362
 20
208.2610608321876
 30
0.0
 10
246.7902508833304
 20
207.7344326270104
 30
0.0
 10
246.6832118337066
 20
207.3708621420902
 30
0.0
 10
246.6103541037768
 20
207.2002668217555
 30
0.0
 10
246.5906638105152
 20
207.2340813828202
 30
0.0
 10
246.5861475352184
 20
207.2418372788233
 30
0.0
  0
SPLINE
  5
196
330
1F
100
AcDbEntity
  8
0
  6
Continuous
 62
     7
370
    15
100
AcDbSpline
210
0.0
220
0.0
230
1.0
 70
    24
 71
     3
 72
    16
 73
    12
 74
     0
 42
0.00000001
 43
0.00000001
 40
0.0
 40
0.0
 40
0.0
 40
0.0
 40
0.06110719973516
 40
0.1864695300788104
 40
0.3118329657763518
 40
0.437195435243349
 40
0.562558541947342
 40
0.6879211427057613
 40
0.8132845673515391
 40
0.9386470368185362
 40
1.0
 40
1.0
 40
1.0
 40
1.0
 10
249.9674966815845
 20
192.995760002057
 30
0.0
 10
249.9732700382967
 20
192.995760002057
 30
0.0
 10
249.9908875222883
 20
192.995760002057
 30
0.0
 10
249.7724525254033
 20
192.995760002057
 30
0.0
 10
249.3597092461843
 20
192.995760002057
 30
0.0
 10
248.8032440622251
 20
192.995760002057
 30
0.0
 10
248.2041423988968
 20
192.995760002057
 30
0.0
 10
247.6454293201697
 20
192.995760002057
 30
0.0
 10
247.2284923862745
 20
192.995760002057
 30
0.0
 10
247.0054891890682
 20
192.995760002057
 30
0.0
 10
247.0203047429872
 20
192.995760002057
 30
0.0
 10
247.0251729968921
 20
192.995760002057
 30
0.0
  0
SPLINE
  5
197
330
1F
100
AcDbEntity
  8
0
  6
Continuous
 62
     7
370
    15
100
AcDbSpline
210
0.0
220
0.0
230
1.0
 70
    24
 71
     3
 72
    16
 73
    12
 74
     0
 42
0.00000001
 43
0.00000001
 40
0.0
 40
0.0
 40
0.0
 40
0.0
 40
0.061009639381562
 40
0.1861718232068119
 40
0.3113351106212064
 40
0.4364974333476865
 40
0.5616603922937852
 40
0.686822846102075
 40
0.8119861224823502
 40
0.9371484452088304
 40
1.0
 40
1.0
 40
1.0
 40
1.0
 10
249.9674966815845
 20
206.5543908335966
 30
0.0
 10
249.9732700320294
 20
206.5543908335966
 30
0.0
 10
249.9908874968962
 20
206.5543908335966
 30
0.0
 10
249.7724527608124
 20
206.5543908335966
 30
0.0
 10
249.3597083836742
 20
206.5543908335966
 30
0.0
 10
248.8032472768335
 20
206.5543908335966
 30
0.0
 10
248.2041304029173
 20
206.5543908335966
 30
0.0
 10
247.645474089382
 20
206.5543908335966
 30
0.0
 10
247.228325304677
 20
206.5543908335966
 30
0.0
 10
247.0048388659514
 20
206.5543908335966
 30
0.0
 10
247.0200505860607
 20
206.5543908335966
 30
0.0
 10
247.0251357439891
 20
206.5543908335966
 30
0.0
  0
SPLINE
  5
198
330
1F
100
AcDbEntity
  8
0
  6
Continuous
 62
     7
370
    15
100
AcDbSpline
210
0.0
220
0.0
230
1.0
 70
     8
 71
     3
 72
    19
 73
    15
 74
     0
 42
0.00000001
 43
0.00000001
 40
0.0
 40
0.0
 40
0.0
 40
0.0
 40
0.0039549809995185
 40
0.1157678183369959
 40
0.2280434424084984
 40
0.3355203096827233
 40
0.4377089451909085
 40
0.5348834340354809
 40
0.6283049581358076
 40
0.730298511094365
 40
0.8413364998007737
 40
0.96412105011313
 40
0.9937658791727169
 40
1.0
 40
1.0
 40
1.0
 40
1.0
 10
236.2955844286815
 20
205.4619955540401
 30
0.0
 10
236.2959792171102
 20
205.4619899412125
 30
0.0
 10
236.3075352258734
 20
205.4618256459061
 30
0.0
 10
236.330766215444
 20
205.4466952796036
 30
0.0
 10
236.3742537633397
 20
205.3797981390762
 30
0.0
 10
236.4122433688602
 20
205.2751026054844
 30
0.0
 10
236.4357346714096
 20
205.1500256961803
 30
0.0
 10
236.4470648654694
 20
205.021589950142
 30
0.0
 10
236.4476578485982
 20
204.9004153392738
 30
0.0
 10
236.4318879432667
 20
204.791189840652
 30
0.0
 10
236.391508239207
 20
204.701772858695
 30
0.0
 10
236.3396415070103
 20
204.6667183920208
 30
0.0
 10
236.3049373380419
 20
204.662108863596
 30
0.0
 10
236.2969689671644
 20
204.6620126919396
 30
0.0
 10
236.2955844286815
 20
204.6619959817035
 30
0.0
  0
SPLINE
  5
199
330
1F
100
AcDbEntity
  8
0
  6
Continuous
 62
     7
370
    15
100
AcDbSpline
210
0.0
220
0.0
230
1.0
 70
     8
 71
     3
 72
    30
 73
    26
 74
     0
 42
0.00000001
 43
0.00000001
 40
0.0
 40
0.0
 40
0.0
 40
0.0
 40
0.1247112310147824
 40
0.2494130785656202
 40
0.3741280601702755
 40
0.4367858391931411
 40
0.4681550721330039
 40
0.4838427846542153
 40
0.4916894992656079
 40
0.4956138377050519
 40
0.4975728235122767
 40
0.4985522983263023
 40
0.4990422673122084
 40
0.4992870926954017
 40
0.4994095487741307
 40
0.4994707335600724
 40
0.4995013259530433
 40
0.4995195680690418
 40
0.4995320416496219
 40
0.5609187714698142
 40
0.6646254983300477
 40
0.7325782071981156
 40
0.811145407748365
 40
0.9002973933763253
 40
1.0
 40
1.0
 40
1.0
 40
1.0
 10
236.3672813657657
 20
205.5218875118298
 30
0.0
 10
236.373048197694
 20
205.5200949608697
 30
0.0
 10
236.3845814276453
 20
205.5165099938237
 30
0.0
 10
236.474430109216
 20
205.4946668215381
 30
0.0
 10
236.5819019956765
 20
205.4689887642243
 30
0.0
 10
236.6674554089618
 20
205.448577394108
 30
0.0
 10
236.7115576607537
 20
205.4380424255052
 30
0.0
 10
236.7337833439043
 20
205.4327234891861
 30
0.0
 10
236.7449168398171
 20
205.4300579033819
 30
0.0
 10
236.7504871397536
 20
205.428725384708
 30
0.0
 10
236.7532708726865
 20
205.4280566011188
 30
0.0
 10
236.7546622885522
 20
205.4277241271391
 30
0.0
 10
236.7553570094449
 20
205.4275557698229
 30
0.0
 10
236.7557050966067
 20
205.4274735041235
 30
0.0
 10
236.7558786905834
 20
205.4274308654767
 30
0.0
 10
236.755965841622
 20
205.4274110091655
 30
0.0
 10
236.7560102439866
 20
205.4273993471346
 30
0.0
 10
236.7560355630001
 20
205.4273952318597
 30
0.0
 10
236.7803502037984
 20
205.4192010481906
 30
0.0
 10
236.8488434012831
 20
205.4084753723558
 30
0.0
 10
236.9391457989055
 20
205.3869454811017
 30
0.0
 10
237.0228095262624
 20
205.3700757048066
 30
0.0
 10
237.0863314316316
 20
205.3571179092709
 30
0.0
 10
237.1368461232655
 20
205.3474938941932
 30
0.0
 10
237.144076460888
 20
205.3470289568386
 30
0.0
 10
237.1478935960666
 20
205.3467835009796
 30
0.0
  0
ELLIPSE
  5
19A
330
1F
100
AcDbEntity
  8
0
  6
Continuous
 62
     7
370
    15
100
AcDbEllipse
 10
237.0244190802
 20
206.6439709325
 30
0.0
 11
0.3906095144045594
 21
-0.08616383961160068
 31
0.0
210
0.0
220
0.0
230
1.0
 40
0.0142285888
 41
0.0
 42
6.283185307179586
  0
LINE
  5
19B
330
1F
100
AcDbEntity
  8
0
  6
Continuous
 62
     7
370
    15
100
AcDbLine
 10
236.1973112706
 20
206.6119959288
 30
0.0
 11
229.9973106269
 21
206.6119959288
 31
0.0
  0
LINE
  5
19C
330
1F
100
AcDbEntity
  8
0
  6
Continuous
 62
     7
370
    15
100
AcDbLine
 10
236.1973112706
 20
206.6119959288
 30
0.0
 11
236.1973112706
 21
205.6119957649
 31
0.0
  0
LINE
  5
19D
330
1F
100
AcDbEntity
  8
0
  6
Continuous
 62
     7
370
    15
100
AcDbLine
 10
236.1973112706
 20
205.6119957649
 30
0.0
 11
229.9973106269
 21
205.6119957649
 31
0.0
  0
LINE
  5
19E
330
1F
100
AcDbEntity
  8
0
  6
Continuous
 62
     7
370
    15
100
AcDbLine
 10
229.9973106269
 20
206.6119959288
 30
0.0
 11
229.9973106269
 21
205.6119957649
 31
0.0
  0
LINE
  5
19F
330
1F
100
AcDbEntity
  8
0
  6
Continuous
 62
     7
370
    15
100
AcDbLine
 10
236.1973112706
 20
194.1119957425
 30
0.0
 11
236.1973112706
 21
193.1119955786
 31
0.0
  0
LINE
  5
1A0
330
1F
100
AcDbEntity
  8
0
  6
Continuous
 62
     7
370
    15
100
AcDbLine
 10
236.1973112706
 20
193.1119955786
 30
0.0
 11
229.9973106269
 21
193.1119955786
 31
0.0
  0
LINE
  5
1A1
330
1F
100
AcDbEntity
  8
0
  6
Continuous
 62
     7
370
    15
100
AcDbLine
 10
229.9973106269
 20
194.1119957425
 30
0.0
 11
229.9973106269
 21
193.1119955786
 31
0.0
  0
LINE
  5
1A2
330
1F
100
AcDbEntity
  8
0
  6
Continuous
 62
     7
370
    15
100
AcDbLine
 10
236.1973112706
 20
194.1119957425
 30
0.0
 11
229.9973106269
 21
194.1119957425
 31
0.0
  0
LWPOLYLINE
  5
1A3
330
1F
100
AcDbEntity
  8
0
  6
Continuous
 62
     7
370
    15
100
AcDbPolyline
 90
        3
 70
   128
 43
0.0
 10
229.918610144
 20
193.5008572125
 10
229.9211880449
 20
193.4946792842
 10
229.9973106269
 20
193.1119955786
  0
LWPOLYLINE
  5
1A4
330
1F
100
AcDbEntity
  8
0
  6
Continuous
 62
     7
370
    15
100
AcDbPolyline
 90
        3
 70
   128
 43
0.0
 10
229.9973106269
 20
206.6119959288
 10
229.9211880449
 20
206.2293122233
 10
229.918610144
 20
206.223134295
  0
LINE
  5
1A5
330
1F
100
AcDbEntity
  8
0
  6
Continuous
 62
     7
370
    15
100
AcDbLine
 10
236.1973112706
 20
205.6119957649
 30
0.0
 11
236.1973112706
 21
205.461995554
 31
0.0
  0
LINE
  5
1A6
330
1F
100
AcDbEntity
  8
0
  6
Continuous
 62
     7
370
    15
100
AcDbLine
 10
236.1973112706
 20
204.6619959817
 30
0.0
 11
236.1973112706
 21
203.7619956479
 31
0.0
  0
LINE
  5
1A7
330
1F
100
AcDbEntity
  8
0
  6
Continuous
 62
     7
370
    15
100
AcDbLine
 10
236.1973112706
 20
195.1619958215
 30
0.0
 11
236.1973112706
 21
194.1119957425
 31
0.0
  0
LINE
  5
1A8
330
1F
100
AcDbEntity
  8
0
  6
Continuous
 62
     7
370
    15
100
AcDbLine
 10
153.1973107044
 20
334.8620011181
 30
0.0
 11
168.1973103691
 21
334.8620011181
 31
0.0
  0
LINE
  5
1A9
330
1F
100
AcDbEntity
  8
0
  6
Continuous
 62
     7
370
    15
100
AcDbLine
 10
168.1973103691
 20
334.8620011181
 30
0.0
 11
168.1973103691
 21
64.8619903893
 31
0.0
  0
LINE
  5
1AA
330
1F
100
AcDbEntity
  8
0
  6
Continuous
 62
     7
370
    15
100
AcDbLine
 10
168.1973103691
 20
64.8619903893
 30
0.0
 11
153.1973107044
 21
64.8619903893
 31
0.0
  0
LINE
  5
1AB
330
1F
100
AcDbEntity
  8
0
  6
Continuous
 62
     7
370
    15
100
AcDbLine
 10
153.1973107044
 20
334.8620011181
 30
0.0
 11
153.1973107044
 21
64.8619903893
 31
0.0
  0
ARC
  5
1AC
330
1F
100
AcDbEntity
  8
0
  6
Continuous
 62
     7
370
    15
100
AcDbCircle
 10
168.1973106865
 20
334.8619957537
 30
0.0
 40
15.0
100
AcDbArc
 50
90.0
 51
180.0
  0
LINE
  5
1AD
330
1F
100
AcDbEntity
  8
0
  6
Continuous
 62
     7
370
    15
100
AcDbLine
 10
168.1973103691
 20
349.8620017142
 30
0.0
 11
168.1973103691
 21
334.8620011181
 31
0.0
  0
LINE
  5
1AE
330
1F
100
AcDbEntity
  8
0
  6
Continuous
 62
     7
370
    15
100
AcDbLine
 10
168.1973103691
 20
64.8619903893
 30
0.0
 11
168.1973103691
 21
49.8619897933
 31
0.0
  0
ARC
  5
1AF
330
1F
100
AcDbEntity
  8
0
  6
Continuous
 62
     7
370
    15
100
AcDbCircle
 10
168.1973106865
 20
64.8619957537
 30
0.0
 40
14.99999999999998
100
AcDbArc
 50
180.0
 51
270.0
  0
LINE
  5
1B0
330
1F
100
AcDbEntity
  8
0
  6
Continuous
 62
     7
370
    15
100
AcDbLine
 10
249.1973078135
 20
49.8619897933
 30
0.0
 11
168.1973103691
 21
49.8619897933
 31
0.0
  0
LINE
  5
1B1
330
1F
100
AcDbEntity
  8
0
  6
Continuous
 62
     7
370
    15
100
AcDbLine
 10
249.1973078135
 20
64.8619903893
 30
0.0
 11
168.1973103691
 21
64.8619903893
 31
0.0
  0
LINE
  5
1B2
330
1F
100
AcDbEntity
  8
0
  6
Continuous
 62
     7
370
    15
100
AcDbLine
 10
249.1973078135
 20
64.8619903893
 30
0.0
 11
249.1973078135
 21
49.8619897933
 31
0.0
  0
LINE
  5
1B3
330
1F
100
AcDbEntity
  8
0
  6
Continuous
 62
     7
370
    15
100
AcDbLine
 10
249.1973078135
 20
334.8620011181
 30
0.0
 11
168.1973103691
 21
334.8620011181
 31
0.0
  0
LINE
  5
1B4
330
1F
100
AcDbEntity
  8
0
  6
Continuous
 62
     7
370
    15
100
AcDbLine
 10
249.1973078135
 20
349.8620017142
 30
0.0
 11
168.1973103691
 21
349.8620017142
 31
0.0
  0
LINE
  5
1B5
330
1F
100
AcDbEntity
  8
0
  6
Continuous
 62
     7
370
    15
100
AcDbLine
 10
249.1973078135
 20
349.8620017142
 30
0.0
 11
249.1973078135
 21
334.8620011181
 31
0.0
  0
LINE
  5
1B6
330
1F
100
AcDbEntity
  8
0
  6
Continuous
 62
     7
370
    15
100
AcDbLine
 10
249.1973078135
 20
64.8619903893
 30
0.0
 11
249.1973078135
 21
190.8540882812
 31
0.0
  0
LINE
  5
1B7
330
1F
100
AcDbEntity
  8
0
  6
Continuous
 62
     7
370
    15
100
AcDbLine
 10
249.1973078135
 20
208.8379253343
 30
0.0
 11
249.1973078135
 21
334.8620011181
 31
0.0
  0
LINE
  5
1B8
330
1F
100
AcDbEntity
  8
0
  6
Continuous
 62
     7
370
    15
100
AcDbLine
 10
229.1973119859
 20
69.8620005221
 30
0.0
 11
173.1973102573
 21
69.8620005221
 31
0.0
  0
LINE
  5
1B9
330
1F
100
AcDbEntity
  8
0
  6
Continuous
 62
     7
370
    15
100
AcDbLine
 10
229.1973119859
 20
69.8620005221
 30
0.0
 11
229.1973119859
 21
187.0494492993
 31
0.0
  0
LINE
  5
1BA
330
1F
100
AcDbEntity
  8
0
  6
Continuous
 62
     7
370
    15
100
AcDbLine
 10
229.1973119859
 20
190.3892353819
 30
0.0
 11
229.1973119859
 21
191.8619953737
 31
0.0
  0
LINE
  5
1BB
330
1F
100
AcDbEntity
  8
0
  6
Continuous
 62
     7
370
    15
100
AcDbLine
 10
229.1973119859
 20
207.8619961337
 30
0.0
 11
229.1973119859
 21
209.3213981659
 31
0.0
  0
LINE
  5
1BC
330
1F
100
AcDbEntity
  8
0
  6
Continuous
 62
     7
370
    15
100
AcDbLine
 10
229.1973119859
 20
212.6641141892
 30
0.0
 11
229.1973119859
 21
329.8619909853
 31
0.0
  0
LINE
  5
1BD
330
1F
100
AcDbEntity
  8
0
  6
Continuous
 62
     7
370
    15
100
AcDbLine
 10
229.1973119859
 20
329.8619909853
 30
0.0
 11
173.1973102573
 21
329.8619909853
 31
0.0
  0
LINE
  5
1BE
330
1F
100
AcDbEntity
  8
0
  6
Continuous
 62
     7
370
    15
100
AcDbLine
 10
173.1973102573
 20
329.8619909853
 30
0.0
 11
173.1973102573
 21
69.8620005221
 31
0.0
  0
LINE
  5
1BF
330
1F
100
AcDbEntity
  8
0
  6
Continuous
 62
     7
370
    15
100
AcDbLine
 10
253.1973084692
 20
69.8620005221
 30
0.0
 11
249.1973078135
 21
69.8620005221
 31
0.0
  0
LINE
  5
1C0
330
1F
100
AcDbEntity
  8
0
  6
Continuous
 62
     7
370
    15
100
AcDbLine
 10
253.1973084692
 20
54.861999926
 30
0.0
 11
249.1973078135
 21
54.861999926
 31
0.0
  0
LINE
  5
1C1
330
1F
100
AcDbEntity
  8
0
  6
Continuous
 62
     7
370
    15
100
AcDbLine
 10
253.1973084692
 20
344.8619915814
 30
0.0
 11
249.1973078135
 21
344.8619915814
 31
0.0
  0
LINE
  5
1C2
330
1F
100
AcDbEntity
  8
0
  6
Continuous
 62
     7
370
    15
100
AcDbLine
 10
253.1973084692
 20
329.8619909853
 30
0.0
 11
249.1973078135
 21
329.8619909853
 31
0.0
  0
LINE
  5
1C3
330
1F
100
AcDbEntity
  8
0
  6
Continuous
 62
     7
370
    15
100
AcDbLine
 10
368.403399583
 20
435.4906580668
 30
0.0
 11
369.6033900939
 21
435.4906580668
 31
0.0
  0
LINE
  5
1C4
330
1F
100
AcDbEntity
  8
0
  6
Continuous
 62
     7
370
    15
100
AcDbLine
 10
368.3033978902
 20
437.9906556826
 30
0.0
 11
368.403399583
 21
437.9906556826
 31
0.0
  0
LINE
  5
1C5
330
1F
100
AcDbEntity
  8
0
  6
Continuous
 62
     7
370
    15
100
AcDbLine
 10
368.403399583
 20
443.9906603914
 30
0.0
 11
368.3033978902
 21
443.9906603914
 31
0.0
  0
LINE
  5
1C6
330
1F
100
AcDbEntity
  8
0
  6
Continuous
 62
     7
370
    15
100
AcDbLine
 10
364.1551530324
 20
500.9906566959
 30
0.0
 11
363.4033894502
 21
500.7170415741
 31
0.0
  0
SPLINE
  5
1C7
330
1F
100
AcDbEntity
  8
0
  6
Continuous
 62
     7
370
    15
100
AcDbSpline
210
0.0
220
0.0
230
1.0
 70
     8
 71
     3
 72
    15
 73
    11
 74
     0
 42
0.00000001
 43
0.00000001
 40
0.0
 40
0.0
 40
0.0
 40
0.0
 40
0.1250744365219807
 40
0.2501503690700617
 40
0.3752914238507727
 40
0.5003033456113692
 40
0.6252875688433512
 40
0.7502617631629114
 40
0.8750784298966161
 40
0.9999999999999999
 40
0.9999999999999999
 40
0.9999999999999999
 40
0.9999999999999999
 10
367.2178333960643
 20
466.0484916787744
 30
0.0
 10
367.1917084142049
 20
466.3072532553495
 30
0.0
 10
367.1394581380029
 20
466.8247795035693
 30
0.0
 10
367.0605908667454
 20
467.605892176231
 30
0.0
 10
366.9861589913487
 20
468.3430732722015
 30
0.0
 10
366.9191677812855
 20
469.0066496956671
 30
0.0
 10
366.8630610389128
 20
469.5624129144485
 30
0.0
 10
366.8205190798911
 20
469.9835091968567
 30
0.0
 10
366.7916929738345
 20
470.269116751601
 30
0.0
 10
366.7873503865182
 20
470.3121516968327
 30
0.0
 10
366.785178180801
 20
470.3336782079339
 30
0.0
  0
SPLINE
  5
1C8
330
1F
100
AcDbEntity
  8
0
  6
Continuous
 62
     7
370
    15
100
AcDbSpline
210
0.0
220
0.0
230
1.0
 70
     8
 71
     3
 72
    15
 73
    11
 74
     0
 42
0.00000001
 43
0.00000001
 40
0.0
 40
0.0
 40
0.0
 40
0.0
 40
0.124939617022092
 40
0.2497688509603433
 40
0.374751241408195
 40
0.4997376030196825
 40
0.6247470132670949
 40
0.7498793343755585
 40
0.8749425669552483
 40
1.0
 40
1.0
 40
1.0
 40
1.0
 10
363.8009375296703
 20
470.0322947722078
 30
0.0
 10
363.8031142538943
 20
470.0107166105399
 30
0.0
 10
363.8074657792247
 20
469.9675793513256
 30
0.0
 10
363.8363118404909
 20
469.6818690043754
 30
0.0
 10
363.8788480831666
 20
469.2606855072472
 30
0.0
 10
363.9349549759013
 20
468.704909565256
 30
0.0
 10
364.0019507199182
 20
468.0413877340184
 30
0.0
 10
364.0763618312142
 20
467.3043384524809
 30
0.0
 10
364.1552202476614
 20
466.5234283824046
 30
0.0
 10
364.2074491146373
 20
466.0060713392855
 30
0.0
 10
364.2335629426113
 20
465.7473988156915
 30
0.0
  0
LINE
  5
1C9
330
1F
100
AcDbEntity
  8
0
  6
Continuous
 62
     7
370
    15
100
AcDbLine
 10
364.2332798205
 20
465.7472647052
 30
0.0
 11
365.8023571931
 21
450.2062923532
 31
0.0
  0
LINE
  5
1CA
330
1F
100
AcDbEntity
  8
0
  6
Continuous
 62
     7
370
    15
100
AcDbLine
 10
368.7871789895
 20
450.5076534372
 30
0.0
 11
367.2181165181
 21
466.0486257892
 31
0.0
  0
SPLINE
  5
1CB
330
1F
100
AcDbEntity
  8
0
  6
Continuous
 62
     7
370
    15
100
AcDbSpline
210
0.0
220
0.0
230
1.0
 70
     8
 71
     3
 72
     9
 73
     5
 74
     0
 42
0.00000001
 43
0.00000001
 40
0.0
 40
0.0
 40
0.0
 40
0.0
 40
0.4837383992592056
 40
0.9999999999999999
 40
0.9999999999999999
 40
0.9999999999999999
 40
0.9999999999999999
 10
365.9724390469661
 20
448.5249198299051
 30
0.0
 10
365.9818996244013
 20
448.4606883497822
 30
0.0
 10
366.00145684262
 20
448.3279069120853
 30
0.0
 10
366.0352995280228
 20
448.2917592870654
 30
0.0
 10
366.0527712069622
 20
448.2730976563096
 30
0.0
  0
SPLINE
  5
1CC
330
1F
100
AcDbEntity
  8
0
  6
Continuous
 62
     7
370
    15
100
AcDbSpline
210
0.0
220
0.0
230
1.0
 70
     8
 71
     3
 72
    11
 73
     7
 74
     0
 42
0.00000001
 43
0.00000001
 40
0.0
 40
0.0
 40
0.0
 40
0.0
 40
0.2484400313536671
 40
0.4978858035227358
 40
0.7483872183351494
 40
1.0
 40
1.0
 40
1.0
 40
1.0
 10
365.8026403151622
 20
450.2064488154054
 30
0.0
 10
365.8206551270081
 20
450.0279772389957
 30
0.0
 10
365.8567576786876
 20
449.6703115933166
 30
0.0
 10
365.9037505647338
 20
449.2054751117794
 30
0.0
 10
365.9425792448267
 20
448.822594748752
 30
0.0
 10
365.9576069795937
 20
448.6752998869566
 30
0.0
 10
365.9651374779812
 20
448.6014894466996
 30
0.0
  0
SPLINE
  5
1CD
330
1F
100
AcDbEntity
  8
0
  6
Continuous
 62
     7
370
    15
100
AcDbSpline
210
0.0
220
0.0
230
1.0
 70
     8
 71
     3
 72
    19
 73
    15
 74
     0
 42
0.00000001
 43
0.00000001
 40
0.0
 40
0.0
 40
0.0
 40
0.0
 40
0.080281755629487
 40
0.1534415944044286
 40
0.2193411972437899
 40
0.2779493423871587
 40
0.3728442556420708
 40
0.4421532682602004
 40
0.5315367006395667
 40
0.6554833364437546
 40
0.7303570865728389
 40
0.8130797286521475
 40
0.9031427835411386
 40
1.0
 40
1.0
 40
1.0
 40
1.0
 10
365.9880852662197
 20
448.442277989924
 30
0.0
 10
366.0234448558523
 20
448.3194010832574
 30
0.0
 10
366.0910272320493
 20
448.084547867523
 30
0.0
 10
366.2882598744613
 20
447.7901404682107
 30
0.0
 10
366.5131059577503
 20
447.5660090719217
 30
0.0
 10
366.8087788283051
 20
447.3729798401353
 30
0.0
 10
367.1507216439522
 20
447.2550615129658
 30
0.0
 10
367.5604762882035
 20
447.2252771662115
 30
0.0
 10
367.9995633400837
 20
447.3275700933488
 30
0.0
 10
368.3861051617438
 20
447.5788012091623
 30
0.0
 10
368.6789434825927
 20
447.9195236798771
 30
0.0
 10
368.859708693587
 20
448.2749917568516
 30
0.0
 10
368.9656336679764
 20
448.7019281235393
 30
0.0
 10
368.933362405639
 20
448.9969939862027
 30
0.0
 10
368.916640277969
 20
449.1498894315362
 30
0.0
  0
SPLINE
  5
1CE
330
1F
100
AcDbEntity
  8
0
  6
Continuous
 62
     7
370
    15
100
AcDbSpline
210
0.0
220
0.0
230
1.0
 70
     8
 71
     3
 72
    11
 73
     7
 74
     0
 42
0.00000001
 43
0.00000001
 40
0.0
 40
0.0
 40
0.0
 40
0.0
 40
0.2477436400961851
 40
0.4969471568772039
 40
0.7476766819245632
 40
1.0
 40
1.0
 40
1.0
 40
1.0
 10
368.9404225312343
 20
448.9822141152025
 30
0.0
 10
368.9339804463785
 20
449.0468401484786
 30
0.0
 10
368.9210583154522
 20
449.1764730362668
 30
0.0
 10
368.8851052801757
 20
449.5343395694721
 30
0.0
 10
368.8401205922573
 20
449.9806660660954
 30
0.0
 10
368.8046847995487
 20
450.3315310315169
 30
0.0
 10
368.7869107686153
 20
450.5075193267465
 30
0.0
  0
LINE
  5
1CF
330
1F
100
AcDbEntity
  8
0
  6
Continuous
 62
     7
370
    15
100
AcDbLine
 10
369.0707033836
 20
460.1623243909
 30
0.0
 11
369.0706884824
 21
460.4621432047
 31
0.0
  0
LINE
  5
1D0
330
1F
100
AcDbEntity
  8
0
  6
Continuous
 62
     7
370
    15
100
AcDbLine
 10
368.2706898414
 20
460.4621432047
 30
0.0
 11
368.2706898414
 21
460.164775632
 31
0.0
  0
SPLINE
  5
1D1
330
1F
100
AcDbEntity
  8
0
  6
Continuous
 62
     7
370
    15
100
AcDbSpline
210
0.0
220
0.0
230
1.0
 70
    24
 71
     3
 72
    11
 73
     7
 74
     0
 42
0.00000001
 43
0.00000001
 40
0.0
 40
0.0
 40
0.0
 40
0.0
 40
0.0207833414794417
 40
0.3465559490330116
 40
0.6711464500042603
 40
0.9999999999999999
 40
0.9999999999999999
 40
0.9999999999999999
 40
0.9999999999999999
 10
368.2706898413768
 20
460.7484615665078
 30
0.0
 10
368.2706898413768
 20
460.7451398540121
 30
0.0
 10
368.270689841377
 20
460.6897513002746
 30
0.0
 10
368.2706898413768
 20
460.5965189124992
 30
0.0
 10
368.2706898413768
 20
460.4838039274628
 30
0.0
 10
368.2706898413768
 20
460.4492871707543
 30
0.0
 10
368.2706898413768
 20
460.4319161992669
 30
0.0
  0
SPLINE
  5
1D2
330
1F
100
AcDbEntity
  8
0
  6
Continuous
 62
     7
370
    15
100
AcDbSpline
210
0.0
220
0.0
230
1.0
 70
    24
 71
     3
 72
    11
 73
     7
 74
     0
 42
0.00000001
 43
0.00000001
 40
0.0
 40
0.0
 40
0.0
 40
0.0
 40
0.250483117174979
 40
0.4977293257689061
 40
0.7458640769072823
 40
1.0
 40
1.0
 40
1.0
 40
1.0
 10
369.0707033835521
 20
460.4294649582505
 30
0.0
 10
369.0707033835522
 20
460.445678755581
 30
0.0
 10
369.0707033835522
 20
460.4778968248243
 30
0.0
 10
369.0707033835521
 20
460.5866810490631
 30
0.0
 10
369.0707033835522
 20
460.7255126556331
 30
0.0
 10
369.0707033835521
 20
460.8325394225104
 30
0.0
 10
369.0707033835521
 20
460.8866921883226
 30
0.0
  0
LINE
  5
1D3
330
1F
100
AcDbEntity
  8
0
  6
Continuous
 62
     7
370
    15
100
AcDbLine
 10
368.0639660321
 20
460.99065759
 30
0.0
 11
368.2728803121
 21
460.7434324246
 31
0.0
  0
LINE
  5
1D4
330
1F
100
AcDbEntity
  8
0
  6
Continuous
 62
     7
370
    15
100
AcDbLine
 10
369.0707033836
 20
460.8866921883
 30
0.0
 11
369.0707033836
 21
460.99065759
 31
0.0
  0
LINE
  5
1D5
330
1F
100
AcDbEntity
  8
0
  6
Continuous
 62
     7
370
    15
100
AcDbLine
 10
363.7943065129
 20
470.1286829334
 30
0.0
 11
363.7787049972
 21
470.5879069191
 31
0.0
  0
SPLINE
  5
1D6
330
1F
100
AcDbEntity
  8
0
  6
Continuous
 62
     7
370
    15
100
AcDbSpline
210
0.0
220
0.0
230
1.0
 70
     8
 71
     3
 72
    11
 73
     7
 74
     0
 42
0.00000001
 43
0.00000001
 40
0.0
 40
0.0
 40
0.0
 40
0.0
 40
0.1207586884497559
 40
0.4133941938278811
 40
0.7063576004656975
 40
1.0
 40
1.0
 40
1.0
 40
1.0
 10
365.8269888125529
 20
449.9652437191606
 30
0.0
 10
365.8369063067914
 20
449.8669432487237
 30
0.0
 10
365.8708569449451
 20
449.5304304540682
 30
0.0
 10
365.9182287589052
 20
449.0615127600218
 30
0.0
 10
365.9611100575532
 20
448.6367861720178
 30
0.0
 10
365.9686598042322
 20
448.5622373738797
 30
0.0
 10
365.9724390469661
 20
448.5249198299051
 30
0.0
  0
LINE
  5
1D7
330
1F
100
AcDbEntity
  8
0
  6
Continuous
 62
     7
370
    15
100
AcDbLine
 10
369.6033900939
 20
499.9906583946
 30
0.0
 11
369.3033999168
 21
499.9906583946
 31
0.0
  0
LINE
  5
1D8
330
1F
100
AcDbEntity
  8
0
  6
Continuous
 62
     7
370
    15
100
AcDbLine
 10
369.3033999168
 20
498.9906563681
 30
0.0
 11
369.203398224
 21
498.9906563681
 31
0.0
  0
LINE
  5
1D9
330
1F
100
AcDbEntity
  8
0
  6
Continuous
 62
     7
370
    15
100
AcDbLine
 10
369.203398224
 20
492.9906591099
 30
0.0
 11
369.3033999168
 21
492.9906591099
 31
0.0
  0
LINE
  5
1DA
330
1F
100
AcDbEntity
  8
0
  6
Continuous
 62
     7
370
    15
100
AcDbLine
 10
369.3033999168
 20
475.990658186
 30
0.0
 11
369.203398224
 21
475.990658186
 31
0.0
  0
LINE
  5
1DB
330
1F
100
AcDbEntity
  8
0
  6
Continuous
 62
     7
370
    15
100
AcDbLine
 10
369.203398224
 20
469.9906609278
 30
0.0
 11
369.3033999168
 21
469.9906609278
 31
0.0
  0
LINE
  5
1DC
330
1F
100
AcDbEntity
  8
0
  6
Continuous
 62
     7
370
    15
100
AcDbLine
 10
654.6034014188
 20
443.9906603914
 30
0.0
 11
654.6034014188
 21
438.9906577092
 31
0.0
  0
LINE
  5
1DD
330
1F
100
AcDbEntity
  8
0
  6
Continuous
 62
     7
370
    15
100
AcDbLine
 10
669.6034020148
 20
443.9906603914
 30
0.0
 11
669.6034020148
 21
438.9906577092
 31
0.0
  0
LINE
  5
1DE
330
1F
100
AcDbEntity
  8
0
  6
Continuous
 62
     7
370
    15
100
AcDbLine
 10
669.6034020148
 20
438.9906577092
 30
0.0
 11
654.6034014188
 21
438.9906577092
 31
0.0
  0
LINE
  5
1DF
330
1F
100
AcDbEntity
  8
0
  6
Continuous
 62
     7
370
    15
100
AcDbLine
 10
669.6034020148
 20
443.9906603914
 30
0.0
 11
654.6034014188
 21
443.9906603914
 31
0.0
  0
ARC
  5
1E0
330
1F
100
AcDbEntity
  8
0
  6
Continuous
 62
     7
370
    15
100
AcDbCircle
 10
654.6033960544
 20
438.9906581741
 30
0.0
 40
15.0
100
AcDbArc
 50
270.0
 51
0.0
  0
LINE
  5
1E1
330
1F
100
AcDbEntity
  8
0
  6
Continuous
 62
     7
370
    15
100
AcDbLine
 10
654.6034014188
 20
438.9906577092
 30
0.0
 11
654.6034014188
 21
423.9906571131
 31
0.0
  0
LINE
  5
1E2
330
1F
100
AcDbEntity
  8
0
  6
Continuous
 62
     7
370
    15
100
AcDbLine
 10
384.60339069
 20
443.9906603914
 30
0.0
 11
384.60339069
 21
438.9906577092
 31
0.0
  0
LINE
  5
1E3
330
1F
100
AcDbEntity
  8
0
  6
Continuous
 62
     7
370
    15
100
AcDbLine
 10
384.60339069
 20
438.9906577092
 30
0.0
 11
654.6034014188
 21
438.9906577092
 31
0.0
  0
LINE
  5
1E4
330
1F
100
AcDbEntity
  8
0
  6
Continuous
 62
     7
370
    15
100
AcDbLine
 10
384.60339069
 20
443.9906603914
 30
0.0
 11
654.6034014188
 21
443.9906603914
 31
0.0
  0
LINE
  5
1E5
330
1F
100
AcDbEntity
  8
0
  6
Continuous
 62
     7
370
    15
100
AcDbLine
 10
384.60339069
 20
423.9906571131
 30
0.0
 11
654.6034014188
 21
423.9906571131
 31
0.0
  0
LINE
  5
1E6
330
1F
100
AcDbEntity
  8
0
  6
Continuous
 62
     7
370
    15
100
AcDbLine
 10
384.60339069
 20
423.9906571131
 30
0.0
 11
384.60339069
 21
438.9906577092
 31
0.0
  0
LINE
  5
1E7
330
1F
100
AcDbEntity
  8
0
  6
Continuous
 62
     7
370
    15
100
AcDbLine
 10
369.6033900939
 20
443.9906603914
 30
0.0
 11
369.6033900939
 21
438.9906577092
 31
0.0
  0
LINE
  5
1E8
330
1F
100
AcDbEntity
  8
0
  6
Continuous
 62
     7
370
    15
100
AcDbLine
 10
369.6033900939
 20
438.9906577092
 30
0.0
 11
384.60339069
 21
438.9906577092
 31
0.0
  0
LINE
  5
1E9
330
1F
100
AcDbEntity
  8
0
  6
Continuous
 62
     7
370
    15
100
AcDbLine
 10
369.6033900939
 20
443.9906603914
 30
0.0
 11
384.60339069
 21
443.9906603914
 31
0.0
  0
ARC
  5
1EA
330
1F
100
AcDbEntity
  8
0
  6
Continuous
 62
     7
370
    15
100
AcDbCircle
 10
384.6033960544
 20
438.9906581741
 30
0.0
 40
15.0
100
AcDbArc
 50
180.0
 51
270.0
  0
LINE
  5
1EB
330
1F
100
AcDbEntity
  8
0
  6
Continuous
 62
     7
370
    15
100
AcDbLine
 10
368.403399583
 20
442.008425973
 30
0.0
 11
369.6033900939
 21
442.008425973
 31
0.0
  0
LINE
  5
1EC
330
1F
100
AcDbEntity
  8
0
  6
Continuous
 62
     7
370
    15
100
AcDbLine
 10
368.403399583
 20
439.9044490677
 30
0.0
 11
369.6033900939
 21
439.9044490677
 31
0.0
  0
LINE
  5
1ED
330
1F
100
AcDbEntity
  8
0
  6
Continuous
 62
     7
370
    15
100
AcDbLine
 10
368.403399583
 20
439.9044490677
 30
0.0
 11
368.403399583
 21
442.008425973
 31
0.0
  0
LINE
  5
1EE
330
1F
100
AcDbEntity
  8
0
  6
Continuous
 62
     7
370
    15
100
AcDbLine
 10
368.403399583
 20
446.9906590205
 30
0.0
 11
369.6033900939
 21
446.9906590205
 31
0.0
  0
LINE
  5
1EF
330
1F
100
AcDbEntity
  8
0
  6
Continuous
 62
     7
370
    15
100
AcDbLine
 10
369.6033900939
 20
443.9906603914
 30
0.0
 11
369.6033900939
 21
446.9906590205
 31
0.0
  0
LINE
  5
1F0
330
1F
100
AcDbEntity
  8
0
  6
Continuous
 62
     7
370
    15
100
AcDbLine
 10
368.403399583
 20
446.9906590205
 30
0.0
 11
368.403399583
 21
442.008425973
 31
0.0
  0
LINE
  5
1F1
330
1F
100
AcDbEntity
  8
0
  6
Continuous
 62
     7
370
    15
100
AcDbLine
 10
369.6033900939
 20
438.9906577092
 30
0.0
 11
369.6033900939
 21
435.4906580668
 31
0.0
  0
LINE
  5
1F2
330
1F
100
AcDbEntity
  8
0
  6
Continuous
 62
     7
370
    15
100
AcDbLine
 10
368.403399583
 20
435.4906580668
 30
0.0
 11
368.403399583
 21
439.9044490677
 31
0.0
  0
LINE
  5
1F3
330
1F
100
AcDbEntity
  8
0
  6
Continuous
 62
     7
370
    15
100
AcDbLine
 10
368.3033978902
 20
437.9906556826
 30
0.0
 11
368.3033978902
 21
443.9906603914
 31
0.0
  0
ARC
  5
1F4
330
1F
100
AcDbEntity
  8
0
  6
Continuous
 62
     7
370
    15
100
AcDbCircle
 10
366.8033960544
 20
448.6906581741
 30
0.0
 40
2.800000000000011
100
AcDbArc
 50
0.0
 51
45.4024529621
  0
LINE
  5
1F5
330
1F
100
AcDbEntity
  8
0
  6
Continuous
 62
     7
370
    15
100
AcDbLine
 10
365.6957393848
 20
451.2622556906
 30
0.0
 11
365.098858472
 21
450.9120486003
 31
0.0
  0
LINE
  5
1F6
330
1F
100
AcDbEntity
  8
0
  6
Continuous
 62
     7
370
    15
100
AcDbLine
 10
362.2859364711
 20
447.241043232
 30
0.0
 11
365.8293729983
 21
449.9600208622
 31
0.0
  0
LINE
  5
1F7
330
1F
100
AcDbEntity
  8
0
  6
Continuous
 62
     7
370
    15
100
AcDbLine
 10
361.5554219447
 20
448.1930709701
 30
0.0
 11
362.2859364711
 21
447.241043232
 31
0.0
  0
LINE
  5
1F8
330
1F
100
AcDbEntity
  8
0
  6
Continuous
 62
     7
370
    15
100
AcDbLine
 10
365.098858472
 20
450.9120486003
 30
0.0
 11
361.5554219447
 21
448.1930709701
 31
0.0
  0
LINE
  5
1F9
330
1F
100
AcDbEntity
  8
0
  6
Continuous
 62
     7
370
    15
100
AcDbLine
 10
369.6033900939
 20
446.9906590205
 30
0.0
 11
369.6033900939
 21
447.990661047
 31
0.0
  0
LINE
  5
1FA
330
1F
100
AcDbEntity
  8
0
  6
Continuous
 62
     7
370
    15
100
AcDbLine
 10
368.403399583
 20
447.6315952163
 30
0.0
 11
368.403399583
 21
446.9906590205
 31
0.0
  0
LINE
  5
1FB
330
1F
100
AcDbEntity
  8
0
  6
Continuous
 62
     7
370
    15
100
AcDbLine
 10
361.3339161836
 20
446.5105287057
 30
0.0
 11
360.6034016572
 21
447.4625564438
 31
0.0
  0
LWPOLYLINE
  5
1FC
330
1F
100
AcDbEntity
  8
0
  6
Continuous
 62
     7
370
    15
100
AcDbPolyline
 90
        9
 70
   128
 43
0.0
 10
360.6034016572
 20
447.4625564438
 10
360.621685382
 20
447.4765933376
 10
360.6758660041
 20
447.5181601267
 10
360.7638424598
 20
447.5856698375
 10
360.8822321855
 20
447.6765147668
 10
361.0265052281
 20
447.7872154933
 10
361.1911034547
 20
447.913510285
 10
361.3696938716
 20
448.0505488139
 10
361.5554219447
 20
448.1930709701
  0
LWPOLYLINE
  5
1FD
330
1F
100
AcDbEntity
  8
0
  6
Continuous
 62
     7
370
    15
100
AcDbPolyline
 90
        9
 70
   128
 43
0.0
 10
362.2859364711
 20
447.241043232
 10
362.100208398
 20
447.0985285264
 10
361.9216030799
 20
446.9614899974
 10
361.7570197545
 20
446.8351952057
 10
361.6127467118
 20
446.7244944792
 10
361.4943569862
 20
446.6336420994
 10
361.4063805305
 20
446.5661398392
 10
361.3521999084
 20
446.5245655995
 10
361.3339161836
 20
446.5105287057
  0
ARC
  5
1FE
330
1F
100
AcDbEntity
  8
0
  6
Continuous
 62
     7
370
    15
100
AcDbCircle
 10
364.7033960544
 20
464.0106581741
 30
0.0
 40
2.200000000000017
100
AcDbArc
 50
103.5934783352
 51
268.1042765976
  0
LINE
  5
1FF
330
1F
100
AcDbEntity
  8
0
  6
Continuous
 62
     7
370
    15
100
AcDbLine
 10
361.156562563
 20
465.3884298425
 30
0.0
 11
361.4902144633
 21
467.2806612473
 31
0.0
  0
LWPOLYLINE
  5
200
330
1F
100
AcDbEntity
  8
0
  6
Continuous
 62
     7
370
    15
100
AcDbPolyline
 90
        9
 70
   128
 43
0.0
 10
361.4902144633
 20
467.2806612473
 10
361.3459861241
 20
467.3060900789
 10
361.2089401446
 20
467.3302523118
 10
361.0838299953
 20
467.3523134809
 10
360.9749919139
 20
467.3715061765
 10
360.886166092
 20
467.3871672969
 10
360.8204221688
 20
467.3987604004
 10
360.7800549232
 20
467.4058831554
 10
360.7664352618
 20
467.4082822424
  0
LINE
  5
201
330
1F
100
AcDbEntity
  8
0
  6
Continuous
 62
     7
370
    15
100
AcDbLine
 10
360.7664352618
 20
467.4082822424
 30
0.0
 11
365.141475793
 21
492.2203920107
 31
0.0
  0
LWPOLYLINE
  5
202
330
1F
100
AcDbEntity
  8
0
  6
Continuous
 62
     7
370
    15
100
AcDbPolyline
 90
        9
 70
   128
 43
0.0
 10
365.141475793
 20
492.2203920107
 10
365.1566153728
 20
492.2177209776
 10
365.2014529668
 20
492.2098159116
 10
365.2742600404
 20
492.1969785612
 10
365.3722351752
 20
492.1797043901
 10
365.4916232787
 20
492.1586527746
 10
365.6278347932
 20
492.1346358281
 10
365.7756245099
 20
492.1085736971
 10
365.9293299876
 20
492.0814722102
  0
LINE
  5
203
330
1F
100
AcDbEntity
  8
0
  6
Continuous
 62
     7
370
    15
100
AcDbLine
 10
365.9293299876
 20
492.0814722102
 30
0.0
 11
361.1040061675
 21
464.715672217
 31
0.0
  0
LINE
  5
204
330
1F
100
AcDbEntity
  8
0
  6
Continuous
 62
     7
370
    15
100
AcDbLine
 10
361.1040061675
 20
464.715672217
 30
0.0
 11
361.156562563
 21
465.3884298425
 31
0.0
  0
LWPOLYLINE
  5
205
330
1F
100
AcDbEntity
  8
0
  6
Continuous
 62
     7
370
    15
100
AcDbPolyline
 90
        5
 70
   128
 43
0.0
 10
363.9887815677
 20
499.1087182682
 10
363.7353128158
 20
499.8051240366
 10
363.551745411
 20
500.3094352108
 10
363.4406125508
 20
500.6147935312
 10
363.4033894502
 20
500.7170415741
  0
LWPOLYLINE
  5
206
330
1F
100
AcDbEntity
  8
0
  6
Continuous
 62
     7
370
    15
100
AcDbPolyline
 90
        5
 70
   128
 43
0.0
 10
364.7483980619
 20
499.3607043546
 10
364.4915616475
 20
500.06637492
 10
364.3055355512
 20
500.5774921995
 10
364.1928678714
 20
500.8870079439
 10
364.1551530324
 20
500.9906566959
  0
LINE
  5
207
330
1F
100
AcDbEntity
  8
0
  6
Continuous
 62
     7
370
    15
100
AcDbLine
 10
364.9704998695
 20
499.0062578838
 30
0.0
 11
364.7483980619
 21
499.3607043546
 31
0.0
  0
LINE
  5
208
330
1F
100
AcDbEntity
  8
0
  6
Continuous
 62
     7
370
    15
100
AcDbLine
 10
364.8883050643
 20
498.9763400775
 30
0.0
 11
364.9704998695
 21
499.0062578838
 31
0.0
  0
SPLINE
  5
209
330
1F
100
AcDbEntity
  8
0
  6
Continuous
 62
     7
370
    15
100
AcDbSpline
210
0.0
220
0.0
230
1.0
 70
     8
 71
     3
 72
    12
 73
     8
 74
     0
 42
0.00000001
 43
0.00000001
 40
0.0
 40
0.0
 40
0.0
 40
0.0
 40
0.2510216974581
 40
0.5023984045762419
 40
0.7402768941595013
 40
0.9473179129745757
 40
1.0
 40
1.0
 40
1.0
 40
1.0
 10
363.98878156768
 20
499.1087182682157
 30
0.0
 10
364.0164905009335
 20
499.0644015723232
 30
0.0
 10
364.0719475550448
 20
498.9757055052585
 30
0.0
 10
364.2789447518277
 20
498.9006973775038
 30
0.0
 10
364.5403359844881
 20
498.8892176171537
 30
0.0
 10
364.7569241179709
 20
498.9308495528232
 30
0.0
 10
364.8661497909433
 20
498.968668835648
 30
0.0
 10
364.8883050643077
 20
498.9763400774598
 30
0.0
  0
LINE
  5
20A
330
1F
100
AcDbEntity
  8
0
  6
Continuous
 62
     7
370
    15
100
AcDbLine
 10
364.8883050643
 20
498.9763400775
 30
0.0
 11
365.4646372758
 21
497.3928570073
 31
0.0
  0
LWPOLYLINE
  5
20B
330
1F
100
AcDbEntity
  8
0
  6
Continuous
 62
     7
370
    15
100
AcDbPolyline
 90
        9
 70
   128
 43
0.0
 10
364.7128885947
 20
497.1192381602
 10
364.7273278199
 20
497.1244982701
 10
364.7701090537
 20
497.1400662583
 10
364.8395782672
 20
497.1653535288
 10
364.9330681525
 20
497.1993803304
 10
365.0469875299
 20
497.2408428114
 10
365.1769554578
 20
497.2881465476
 10
365.3179800473
 20
497.3394773226
 10
365.4646372758
 20
497.3928570073
  0
LINE
  5
20C
330
1F
100
AcDbEntity
  8
0
  6
Continuous
 62
     7
370
    15
100
AcDbLine
 10
364.7128885947
 20
497.1192381602
 30
0.0
 11
363.9887815677
 21
499.1087182682
 31
0.0
  0
ARC
  5
20D
330
1F
100
AcDbEntity
  8
0
  6
Continuous
 62
     7
370
    15
100
AcDbCircle
 10
365.2934015605
 20
470.1796490926
 30
0.0
 40
1.600000000000023
100
AcDbArc
 50
347.034367059
 51
204.5705045339
  0
ARC
  5
20E
330
1F
100
AcDbEntity
  8
0
  6
Continuous
 62
     7
370
    15
100
AcDbCircle
 10
365.8061105258
 20
498.2027230284
 30
0.0
 40
0.4999999999999432
100
AcDbArc
 50
36.8410865502
 51
90.0
  0
ARC
  5
20F
330
1F
100
AcDbEntity
  8
0
  6
Continuous
 62
     7
370
    15
100
AcDbCircle
 10
358.6033960544
 20
492.8063442201
 30
0.0
 40
9.499999999999943
100
AcDbArc
 50
0.0
 51
36.8410865502
  0
LINE
  5
210
330
1F
100
AcDbEntity
  8
0
  6
Continuous
 62
     7
370
    15
100
AcDbLine
 10
368.1033945047
 20
492.8063429218
 30
0.0
 11
368.1033945047
 21
464.7806561809
 31
0.0
  0
ARC
  5
211
330
1F
100
AcDbEntity
  8
0
  6
Continuous
 62
     7
370
    15
100
AcDbCircle
 10
355.7858090139
 20
493.8700486424
 30
0.0
 40
10.30000000000011
100
AcDbArc
 50
350.0
 51
20.0
  0
ARC
  5
212
330
1F
100
AcDbEntity
  8
0
  6
Continuous
 62
     7
370
    15
100
AcDbCircle
 10
365.6880979802
 20
499.7027230284
 30
0.0
 40
1.0
100
AcDbArc
 50
224.1440002858
 51
270.0
  0
LINE
  5
213
330
1F
100
AcDbEntity
  8
0
  6
Continuous
 62
     7
370
    15
100
AcDbLine
 10
365.6880950891
 20
498.7027212303
 30
0.0
 11
365.8061122857
 21
498.7027212303
 31
0.0
  0
LWPOLYLINE
  5
214
330
1F
100
AcDbEntity
  8
0
  6
Continuous
 62
     7
370
    15
100
AcDbPolyline
 90
        3
 70
   128
 43
0.0
 10
368.1033945047
 20
464.7806561809
 10
367.8947782479
 20
463.5903737765
 10
367.5386106931
 20
462.8742165189
  0
ARC
  5
215
330
1F
100
AcDbEntity
  8
0
  6
Continuous
 62
     7
370
    15
100
AcDbCircle
 10
364.6033960544
 20
464.7806581741
 30
0.0
 40
3.500000000000064
100
AcDbArc
 50
181.0639402281
 51
271.3221928089
  0
ARC
  5
216
330
1F
100
AcDbEntity
  8
0
  6
Continuous
 62
     7
370
    15
100
AcDbCircle
 10
355.7858090139
 20
493.8700486424
 30
0.0
 40
9.500000000000338
100
AcDbArc
 50
350.0
 51
20.0
  0
ARC
  5
217
330
1F
100
AcDbEntity
  8
0
  6
Continuous
 62
     7
370
    15
100
AcDbCircle
 10
365.1970138477
 20
465.4781537009
 30
0.0
 40
4.698428302688012
100
AcDbArc
 50
170.0
 51
264.3261771658
  0
LINE
  5
218
330
1F
100
AcDbEntity
  8
0
  6
Continuous
 62
     7
370
    15
100
AcDbLine
 10
360.7664352618
 20
467.4082822424
 30
0.0
 11
360.5699634515
 21
466.2940255623
 31
0.0
  0
SPLINE
  5
219
330
1F
100
AcDbEntity
  8
0
  6
Continuous
 62
     7
370
    15
100
AcDbSpline
210
0.0
220
0.0
230
1.0
 70
     8
 71
     3
 72
    12
 73
     8
 74
     0
 42
0.00000001
 43
0.00000001
 40
0.0
 40
0.0
 40
0.0
 40
0.0
 40
0.2340518500848962
 40
0.4681084143424835
 40
0.7021652771456403
 40
0.9362190989366869
 40
0.9999999999999999
 40
0.9999999999999999
 40
0.9999999999999999
 40
0.9999999999999999
 10
365.9003770314326
 20
465.6677744608522
 30
0.0
 10
365.7039841796342
 20
465.6483918502336
 30
0.0
 10
365.3111945203762
 20
465.6096262386001
 30
0.0
 10
364.7736955244181
 20
465.6043840932647
 30
0.0
 10
364.400193814397
 20
465.6428667696917
 30
0.0
 10
364.2210007137276
 20
465.6975169161376
 30
0.0
 10
364.2497198227567
 20
465.7414726308521
 30
0.0
 10
364.2558699809185
 20
465.7508856874109
 30
0.0
  0
SPLINE
  5
21A
330
1F
100
AcDbEntity
  8
0
  6
Continuous
 62
     7
370
    15
100
AcDbSpline
210
0.0
220
0.0
230
1.0
 70
     8
 71
     3
 72
    11
 73
     7
 74
     0
 42
0.00000001
 43
0.00000001
 40
0.0
 40
0.0
 40
0.0
 40
0.0
 40
0.198686486802408
 40
0.4657890565669508
 40
0.7328959069263856
 40
1.0
 40
1.0
 40
1.0
 40
1.0
 10
367.196286316978
 20
466.0466588359475
 30
0.0
 10
367.195102564206
 20
466.022169086787
 30
0.0
 10
367.1923274429797
 20
465.9647567416363
 30
0.0
 10
366.9228102920926
 20
465.8576615692909
 30
0.0
 10
366.4757419021448
 20
465.7468586695039
 30
0.0
 10
366.0921646617359
 20
465.6941357730278
 30
0.0
 10
365.9003770314327
 20
465.6677744608522
 30
0.0
  0
SPLINE
  5
21B
330
1F
100
AcDbEntity
  8
0
  6
Continuous
 62
     7
370
    15
100
AcDbSpline
210
0.0
220
0.0
230
1.0
 70
     8
 71
     3
 72
    12
 73
     8
 74
     0
 42
0.00000001
 43
0.00000001
 40
0.0
 40
0.0
 40
0.0
 40
0.0
 40
0.2339702271299507
 40
0.4679328904885977
 40
0.7018980303025738
 40
0.9358629961404901
 40
1.0
 40
1.0
 40
1.0
 40
1.0
 10
365.2934080325237
 20
471.67964794451
 30
0.0
 10
365.0973226586615
 20
471.6571427464903
 30
0.0
 10
364.7051582499697
 20
471.6121330779973
 30
0.0
 10
364.2022219478773
 20
471.2646409513457
 30
0.0
 10
363.8824095700038
 20
470.7711539491605
 30
0.0
 10
363.7544823792223
 20
470.3175692989306
 30
0.0
 10
363.8122714849122
 20
470.0745763282721
 30
0.0
 10
363.8247048817745
 20
470.0222960930467
 30
0.0
  0
SPLINE
  5
21C
330
1F
100
AcDbEntity
  8
0
  6
Continuous
 62
     7
370
    15
100
AcDbSpline
210
0.0
220
0.0
230
1.0
 70
     8
 71
     3
 72
    11
 73
     7
 74
     0
 42
0.00000001
 43
0.00000001
 40
0.0
 40
0.0
 40
0.0
 40
0.0
 40
0.1976896372521521
 40
0.4651276561127174
 40
0.7325628442169249
 40
1.0
 40
1.0
 40
1.0
 40
1.0
 10
366.7636162005535
 20
470.3293568711877
 30
0.0
 10
366.7453360066046
 20
470.4741078589158
 30
0.0
 10
366.7023260447121
 20
470.8146805291772
 30
0.0
 10
366.3768668137306
 20
471.2644534787533
 30
0.0
 10
365.8835752445498
 20
471.6121769237512
 30
0.0
 10
365.4901309189977
 20
471.6571575490991
 30
0.0
 10
365.2934080325237
 20
471.67964794451
 30
0.0
  0
SPLINE
  5
21D
330
1F
100
AcDbEntity
  8
0
  6
Continuous
 62
     7
370
    15
100
AcDbSpline
210
0.0
220
0.0
230
1.0
 70
     8
 71
     3
 72
    12
 73
     8
 74
     0
 42
0.00000001
 43
0.00000001
 40
0.0
 40
0.0
 40
0.0
 40
0.0
 40
0.2350125244436734
 40
0.470030069204972
 40
0.70504759456043
 40
0.9400627036485777
 40
1.0
 40
1.0
 40
1.0
 40
1.0
 10
367.4694544039836
 20
450.1268021088243
 30
0.0
 10
367.2730688569926
 20
450.1074242363988
 30
0.0
 10
366.8802935678393
 20
450.0686680775996
 30
0.0
 10
366.3426848343909
 20
450.0633995924318
 30
0.0
 10
365.9696026473275
 20
450.101928801488
 30
0.0
 10
365.7906062183419
 20
450.1560389789612
 30
0.0
 10
365.8184787183362
 20
450.199340743068
 30
0.0
 10
365.8241426907649
 20
450.2081400972009
 30
0.0
  0
SPLINE
  5
21E
330
1F
100
AcDbEntity
  8
0
  6
Continuous
 62
     7
370
    15
100
AcDbSpline
210
0.0
220
0.0
230
1.0
 70
     8
 71
     3
 72
    11
 73
     7
 74
     0
 42
0.00000001
 43
0.00000001
 40
0.0
 40
0.0
 40
0.0
 40
0.0
 40
0.1989239528429226
 40
0.4659512217777148
 40
0.7329742825759883
 40
0.9999999999999999
 40
0.9999999999999999
 40
0.9999999999999999
 40
0.9999999999999999
 10
368.7654083930125
 20
450.5057982426286
 30
0.0
 10
368.7642345217255
 20
450.4812726233103
 30
0.0
 10
368.7614848942794
 20
450.4238248292016
 30
0.0
 10
368.4918794928847
 20
450.316692253009
 30
0.0
 10
368.0448164565747
 20
450.205884729298
 30
0.0
 10
367.6612423908771
 20
450.1531630697368
 30
0.0
 10
367.4694544039837
 20
450.1268021088243
 30
0.0
  0
ARC
  5
21F
330
1F
100
AcDbEntity
  8
0
  6
Continuous
 62
     7
370
    15
100
AcDbCircle
 10
368.6706822477
 20
460.4284340404
 30
0.0
 40
0.4000075631347627
100
AcDbArc
 50
0.1476654792
 51
179.5012206112
  0
ELLIPSE
  5
220
330
1F
100
AcDbEntity
  8
0
  6
Continuous
 62
     7
370
    15
100
AcDbEllipse
 10
368.6706954547
 20
460.1635497804
 30
0.0
 11
0.3991830274373455
 21
-0.02624604221153959
 31
0.0
210
0.0
220
0.0
230
0.9999999999999999
 40
0.9763157485
 41
0.0
 42
6.283185307179586
  0
SPLINE
  5
221
330
1F
100
AcDbEntity
  8
0
  6
Continuous
 62
     7
370
    15
100
AcDbSpline
210
0.0
220
0.0
230
1.0
 70
     8
 71
     3
 72
    13
 73
     9
 74
     0
 42
0.00000001
 43
0.00000001
 40
0.0
 40
0.0
 40
0.0
 40
0.0
 40
0.0081702305184465
 40
0.2391540597909445
 40
0.4710939174990594
 40
0.693120466081165
 40
0.9042225443386908
 40
1.0
 40
1.0
 40
1.0
 40
1.0
 10
368.6706966124645
 20
460.8923844318986
 30
0.0
 10
368.6690377113315
 20
460.8919896365258
 30
0.0
 10
368.6204793579454
 20
460.8804334244986
 30
0.0
 10
368.5243473658719
 20
460.8572371950509
 30
0.0
 10
368.4015112921094
 20
460.8135952761763
 30
0.0
 10
368.3158621156017
 20
460.7761407889181
 30
0.0
 10
368.2718433185942
 20
460.7549943075588
 30
0.0
 10
368.275075343147
 20
460.7500154680482
 30
0.0
 10
368.276084061729
 20
460.7484615665078
 30
0.0
  0
SPLINE
  5
222
330
1F
100
AcDbEntity
  8
0
  6
Continuous
 62
     7
370
    15
100
AcDbSpline
210
0.0
220
0.0
230
1.0
 70
     8
 71
     3
 72
    13
 73
     9
 74
     0
 42
0.00000001
 43
0.00000001
 40
0.0
 40
0.0
 40
0.0
 40
0.0
 40
0.1252289285960488
 40
0.2499779134280402
 40
0.4999780450168358
 40
0.749997895397136
 40
0.8747543546657531
 40
0.9999999999999999
 40
0.9999999999999999
 40
0.9999999999999999
 40
0.9999999999999999
 10
369.0707033835521
 20
460.8866921883226
 30
0.0
 10
369.0689890613652
 20
460.8867189424499
 30
0.0
 10
369.0655669871844
 20
460.8867723481685
 30
0.0
 10
369.0311871132258
 20
460.8872489394944
 30
0.0
 10
368.9559232984386
 20
460.8883263370254
 30
0.0
 10
368.847260957511
 20
460.8898756969429
 30
0.0
 10
368.7485477185019
 20
460.8912725662869
 30
0.0
 10
368.6966808109501
 20
460.8920133268725
 30
0.0
 10
368.6706966124645
 20
460.8923844318986
 30
0.0
  0
SPLINE
  5
223
330
1F
100
AcDbEntity
  8
0
  6
Continuous
 62
     7
370
    15
100
AcDbSpline
210
0.0
220
0.0
230
1.0
 70
     8
 71
     3
 72
    10
 73
     6
 74
     0
 42
0.00000001
 43
0.00000001
 40
0.0
 40
0.0
 40
0.0
 40
0.0
 40
0.0190107309040389
 40
0.5253203859619627
 40
1.0
 40
1.0
 40
1.0
 40
1.0
 10
368.6706966124645
 20
460.8923844318986
 30
0.0
 10
368.6722209624453
 20
460.893122128699
 30
0.0
 10
368.7143430735998
 20
460.9135067824972
 30
0.0
 10
368.7968619076241
 20
460.9519215177879
 30
0.0
 10
368.8670174822972
 20
460.9780261296127
 30
0.0
 10
368.900964256393
 20
460.990657589972
 30
0.0
  0
LINE
  5
224
330
1F
100
AcDbEntity
  8
0
  6
Continuous
 62
     7
370
    15
100
AcDbLine
 10
363.7941724025
 20
470.1316184621
 30
0.0
 11
363.8066297732
 21
469.9808485132
 31
0.0
  0
LINE
  5
225
330
1F
100
AcDbEntity
  8
0
  6
Continuous
 62
     7
370
    15
100
AcDbLine
 10
366.786400076
 20
470.3243575316
 30
0.0
 11
366.7508161031
 21
470.5345235091
 31
0.0
  0
LINE
  5
226
330
1F
100
AcDbEntity
  8
0
  6
Continuous
 62
     7
370
    15
100
AcDbLine
 10
654.6034014188
 20
528.9906584915
 30
0.0
 11
384.60339069
 21
528.9906584915
 31
0.0
  0
LINE
  5
227
330
1F
100
AcDbEntity
  8
0
  6
Continuous
 62
     7
370
    15
100
AcDbLine
 10
384.60339069
 20
528.9906584915
 30
0.0
 11
384.60339069
 21
543.9906581562
 31
0.0
  0
LINE
  5
228
330
1F
100
AcDbEntity
  8
0
  6
Continuous
 62
     7
370
    15
100
AcDbLine
 10
654.6034014188
 20
543.9906581562
 30
0.0
 11
384.60339069
 21
543.9906581562
 31
0.0
  0
LINE
  5
229
330
1F
100
AcDbEntity
  8
0
  6
Continuous
 62
     7
370
    15
100
AcDbLine
 10
654.6034014188
 20
528.9906584915
 30
0.0
 11
654.6034014188
 21
543.9906581562
 31
0.0
  0
LINE
  5
22A
330
1F
100
AcDbEntity
  8
0
  6
Continuous
 62
     7
370
    15
100
AcDbLine
 10
384.60339069
 20
528.9906584915
 30
0.0
 11
369.6033900939
 21
528.9906584915
 31
0.0
  0
ARC
  5
22B
330
1F
100
AcDbEntity
  8
0
  6
Continuous
 62
     7
370
    15
100
AcDbCircle
 10
384.6033960544
 20
528.9906581741
 30
0.0
 40
15.00000000000011
100
AcDbArc
 50
90.0
 51
180.0
  0
LINE
  5
22C
330
1F
100
AcDbEntity
  8
0
  6
Continuous
 62
     7
370
    15
100
AcDbLine
 10
654.6034014188
 20
528.9906584915
 30
0.0
 11
669.6034020148
 21
528.9906584915
 31
0.0
  0
ARC
  5
22D
330
1F
100
AcDbEntity
  8
0
  6
Continuous
 62
     7
370
    15
100
AcDbCircle
 10
654.6033960544
 20
528.9906581741
 30
0.0
 40
15.00000000000011
100
AcDbArc
 50
0.0
 51
90.0
  0
LINE
  5
22E
330
1F
100
AcDbEntity
  8
0
  6
Continuous
 62
     7
370
    15
100
AcDbLine
 10
654.6034014188
 20
447.990661047
 30
0.0
 11
654.6034014188
 21
528.9906584915
 31
0.0
  0
LINE
  5
22F
330
1F
100
AcDbEntity
  8
0
  6
Continuous
 62
     7
370
    15
100
AcDbLine
 10
669.6034020148
 20
447.990661047
 30
0.0
 11
669.6034020148
 21
528.9906584915
 31
0.0
  0
LINE
  5
230
330
1F
100
AcDbEntity
  8
0
  6
Continuous
 62
     7
370
    15
100
AcDbLine
 10
669.6034020148
 20
447.990661047
 30
0.0
 11
654.6034014188
 21
447.990661047
 31
0.0
  0
LINE
  5
231
330
1F
100
AcDbEntity
  8
0
  6
Continuous
 62
     7
370
    15
100
AcDbLine
 10
369.6033900939
 20
447.990661047
 30
0.0
 11
369.6033900939
 21
528.9906584915
 31
0.0
  0
LINE
  5
232
330
1F
100
AcDbEntity
  8
0
  6
Continuous
 62
     7
370
    15
100
AcDbLine
 10
384.60339069
 20
447.990661047
 30
0.0
 11
384.60339069
 21
528.9906584915
 31
0.0
  0
LINE
  5
233
330
1F
100
AcDbEntity
  8
0
  6
Continuous
 62
     7
370
    15
100
AcDbLine
 10
384.60339069
 20
447.990661047
 30
0.0
 11
369.6033900939
 21
447.990661047
 31
0.0
  0
LINE
  5
234
330
1F
100
AcDbEntity
  8
0
  6
Continuous
 62
     7
370
    15
100
AcDbLine
 10
384.60339069
 20
447.990661047
 30
0.0
 11
654.6034014188
 21
447.990661047
 31
0.0
  0
LINE
  5
235
330
1F
100
AcDbEntity
  8
0
  6
Continuous
 62
     7
370
    15
100
AcDbLine
 10
389.6034008227
 20
467.9906568747
 30
0.0
 11
389.6034008227
 21
523.9906586033
 31
0.0
  0
LINE
  5
236
330
1F
100
AcDbEntity
  8
0
  6
Continuous
 62
     7
370
    15
100
AcDbLine
 10
389.6034008227
 20
467.9906568747
 30
0.0
 11
649.603391286
 21
467.9906568747
 31
0.0
  0
LINE
  5
237
330
1F
100
AcDbEntity
  8
0
  6
Continuous
 62
     7
370
    15
100
AcDbLine
 10
649.603391286
 20
523.9906586033
 30
0.0
 11
649.603391286
 21
467.9906568747
 31
0.0
  0
LINE
  5
238
330
1F
100
AcDbEntity
  8
0
  6
Continuous
 62
     7
370
    15
100
AcDbLine
 10
649.603391286
 20
523.9906586033
 30
0.0
 11
389.6034008227
 21
523.9906586033
 31
0.0
  0
LINE
  5
239
330
1F
100
AcDbEntity
  8
0
  6
Continuous
 62
     7
370
    15
100
AcDbLine
 10
664.603391882
 20
447.990661047
 30
0.0
 11
664.603391882
 21
443.9906603914
 31
0.0
  0
LINE
  5
23A
330
1F
100
AcDbEntity
  8
0
  6
Continuous
 62
     7
370
    15
100
AcDbLine
 10
649.603391286
 20
443.9906603914
 30
0.0
 11
649.603391286
 21
447.990661047
 31
0.0
  0
LINE
  5
23B
330
1F
100
AcDbEntity
  8
0
  6
Continuous
 62
     7
370
    15
100
AcDbLine
 10
389.6034008227
 20
443.9906603914
 30
0.0
 11
389.6034008227
 21
447.990661047
 31
0.0
  0
LINE
  5
23C
330
1F
100
AcDbEntity
  8
0
  6
Continuous
 62
     7
370
    15
100
AcDbLine
 10
374.6034002267
 20
443.9906603914
 30
0.0
 11
374.6034002267
 21
447.990661047
 31
0.0
  0
LINE
  5
23D
330
1F
100
AcDbEntity
  8
0
  6
Continuous
 62
     7
370
    15
100
AcDbLine
 10
669.6034020148
 20
447.990661047
 30
0.0
 11
670.2707207166
 21
447.990661047
 31
0.0
  0
ARC
  5
23E
330
1F
100
AcDbEntity
  8
0
  6
Continuous
 62
     7
370
    15
100
AcDbCircle
 10
670.2707138024
 20
448.4906581741
 30
0.0
 40
0.5000000000000312
100
AcDbArc
 50
270.0
 51
332.720387264
  0
ARC
  5
23F
330
1F
100
AcDbEntity
  8
0
  6
Continuous
 62
     7
370
    15
100
AcDbCircle
 10
670.0412471891
 20
443.4906581741
 30
0.0
 40
0.4999999999999544
100
AcDbArc
 50
22.024312837
 51
90.0
  0
ARC
  5
240
330
1F
100
AcDbEntity
  8
0
  6
Continuous
 62
     7
370
    15
100
AcDbCircle
 10
675.6033960544
 20
445.7406581741
 30
0.0
 40
5.500000000000036
100
AcDbArc
 50
202.024312837
 51
152.720387264
  0
LINE
  5
241
330
1F
100
AcDbEntity
  8
0
  6
Continuous
 62
     7
370
    15
100
AcDbLine
 10
670.0412428342
 20
443.9906603914
 30
0.0
 11
669.6034020148
 21
443.9906603914
 31
0.0
  0
LINE
  5
242
330
1F
100
AcDbEntity
  8
0
  6
Continuous
 62
     7
370
    15
100
AcDbLine
 10
369.3033999168
 20
467.1906582337
 30
0.0
 11
369.6033900939
 21
467.1917162161
 31
0.0
  0
LINE
  5
243
330
1F
100
AcDbEntity
  8
0
  6
Continuous
 62
     7
370
    15
100
AcDbLine
 10
369.6033900939
 20
469.1906548362
 30
0.0
 11
369.3033999168
 21
469.1906548362
 31
0.0
  0
LINE
  5
244
330
1F
100
AcDbEntity
  8
0
  6
Continuous
 62
     7
370
    15
100
AcDbLine
 10
369.3033999168
 20
467.1906582337
 30
0.0
 11
369.3033999168
 21
469.1906548362
 31
0.0
  0
LINE
  5
245
330
1F
100
AcDbEntity
  8
0
  6
Continuous
 62
     7
370
    15
100
AcDbLine
 10
369.6033900939
 20
460.99065759
 30
0.0
 11
369.3033999168
 21
460.99065759
 31
0.0
  0
LINE
  5
246
330
1F
100
AcDbEntity
  8
0
  6
Continuous
 62
     7
370
    15
100
AcDbLine
 10
369.3033999168
 20
460.99065759
 30
0.0
 11
369.3033999168
 21
467.1906582337
 31
0.0
  0
ARC
  5
247
330
1F
100
AcDbEntity
  8
0
  6
Continuous
 62
     7
370
    15
100
AcDbCircle
 10
364.4033960544
 20
464.0906581741
 30
0.0
 40
3.100000000000017
100
AcDbArc
 50
192.3149190288
 51
270.0
  0
LINE
  5
248
330
1F
100
AcDbEntity
  8
0
  6
Continuous
 62
     7
370
    15
100
AcDbLine
 10
364.4033914767
 20
460.99065759
 30
0.0
 11
364.7135293447
 21
460.99065759
 31
0.0
  0
LINE
  5
249
330
1F
100
AcDbEntity
  8
0
  6
Continuous
 62
     7
370
    15
100
AcDbLine
 10
367.7287793122
 20
460.99065759
 30
0.0
 11
369.3033999168
 21
460.99065759
 31
0.0
  0
LINE
  5
24A
330
1F
100
AcDbEntity
  8
0
  6
Continuous
 62
     7
370
    15
100
AcDbLine
 10
369.3033999168
 20
467.1906582337
 30
0.0
 11
368.1033945047
 21
467.1906582337
 31
0.0
  0
LINE
  5
24B
330
1F
100
AcDbEntity
  8
0
  6
Continuous
 62
     7
370
    15
100
AcDbLine
 10
369.3033999168
 20
469.1906548362
 30
0.0
 11
369.3033999168
 21
493.2406596165
 31
0.0
  0
LINE
  5
24C
330
1F
100
AcDbEntity
  8
0
  6
Continuous
 62
     7
370
    15
100
AcDbLine
 10
369.3033999168
 20
499.9906583946
 30
0.0
 11
369.3033999168
 21
493.2406596165
 31
0.0
  0
LINE
  5
24D
330
1F
100
AcDbEntity
  8
0
  6
Continuous
 62
     7
370
    15
100
AcDbLine
 10
369.203398224
 20
492.9906591099
 30
0.0
 11
369.203398224
 21
498.9906563681
 31
0.0
  0
LINE
  5
24E
330
1F
100
AcDbEntity
  8
0
  6
Continuous
 62
     7
370
    15
100
AcDbLine
 10
369.203398224
 20
469.9906609278
 30
0.0
 11
369.203398224
 21
475.990658186
 31
0.0
  0
LINE
  5
24F
330
1F
100
AcDbEntity
  8
0
  6
Continuous
 62
     7
370
    15
100
AcDbLine
 10
368.1033945047
 20
485.347473554
 30
0.0
 11
369.3033999168
 21
485.0259325724
 31
0.0
  0
LINE
  5
250
330
1F
100
AcDbEntity
  8
0
  6
Continuous
 62
     7
370
    15
100
AcDbLine
 10
369.3033999168
 20
483.9906594973
 30
0.0
 11
368.1033945047
 21
484.3121967536
 31
0.0
  0
LINE
  5
251
330
1F
100
AcDbEntity
  8
0
  6
Continuous
 62
     8
370
    15
100
AcDbLine
 10
369.6033900939
 20
493.2406596165
 30
0.0
 11
369.3033999168
 21
493.2406596165
 31
0.0
  0
ENDSEC
  0
SECTION
  2
OBJECTS
  0
DICTIONARY
  5
C
330
0
100
AcDbDictionary
281
     1
  3
ACAD_GROUP
350
D
  3
ACAD_LAYOUT
350
1A
  3
ACAD_MLINESTYLE
350
17
  3
ACAD_PLOTSETTINGS
350
19
  3
ACAD_PLOTSTYLENAME
350
E
  0
DICTIONARY
  5
D
102
{ACAD_REACTORS
330
C
102
}
330
C
100
AcDbDictionary
281
     1
  0
DICTIONARY
  5
1A
102
{ACAD_REACTORS
330
C
102
}
330
C
100
AcDbDictionary
281
     1
  3
Layout1
350
1E
  3
Layout2
350
26
  3
Model
350
22
  0
DICTIONARY
  5
17
102
{ACAD_REACTORS
330
C
102
}
330
C
100
AcDbDictionary
281
     1
  3
Standard
350
18
  0
DICTIONARY
  5
19
102
{ACAD_REACTORS
330
C
102
}
330
C
100
AcDbDictionary
281
     1
  0
ACDBDICTIONARYWDFLT
  5
E
102
{ACAD_REACTORS
330
C
102
}
330
C
100
AcDbDictionary
281
     1
  3
Normal
350
F
100
AcDbDictionaryWithDefault
340
F
  0
LAYOUT
  5
1E
102
{ACAD_REACTORS
330
1A
102
}
330
1A
100
AcDbPlotSettings
  1

  2
none_device
  4

  6

 40
0.0
 41
0.0
 42
0.0
 43
0.0
 44
0.0
 45
0.0
 46
0.0
 47
0.0
 48
0.0
 49
0.0
140
0.0
141
0.0
142
1.0
143
1.0
 70
   688
 72
     0
 73
     0
 74
     5
  7

 75
    16
147
1.0
148
0.0
149
0.0
100
AcDbLayout
  1
Layout1
 70
     1
 71
     1
 10
0.0
 20
0.0
 11
420.0
 21
297.0
 12
0.0
 22
0.0
 32
0.0
 14
1.0000000000E+20
 24
1.0000000000E+20
 34
1.0000000000E+20
 15
-1.0000000000E+20
 25
-1.0000000000E+20
 35
-1.0000000000E+20
146
0.0
 13
0.0
 23
0.0
 33
0.0
 16
1.0
 26
0.0
 36
0.0
 17
0.0
 27
1.0
 37
0.0
 76
     0
330
1B
  0
LAYOUT
  5
26
102
{ACAD_REACTORS
330
1A
102
}
330
1A
100
AcDbPlotSettings
  1

  2
none_device
  4

  6

 40
0.0
 41
0.0
 42
0.0
 43
0.0
 44
0.0
 45
0.0
 46
0.0
 47
0.0
 48
0.0
 49
0.0
140
0.0
141
0.0
142
1.0
143
1.0
 70
   688
 72
     0
 73
     0
 74
     5
  7

 75
    16
147
1.0
148
0.0
149
0.0
100
AcDbLayout
  1
Layout2
 70
     1
 71
     2
 10
0.0
 20
0.0
 11
0.0
 21
0.0
 12
0.0
 22
0.0
 32
0.0
 14
0.0
 24
0.0
 34
0.0
 15
0.0
 25
0.0
 35
0.0
146
0.0
 13
0.0
 23
0.0
 33
0.0
 16
1.0
 26
0.0
 36
0.0
 17
0.0
 27
1.0
 37
0.0
 76
     0
330
23
  0
LAYOUT
  5
22
102
{ACAD_REACTORS
330
1A
102
}
330
1A
100
AcDbPlotSettings
  1

  2
none_device
  4

  6

 40
0.0
 41
0.0
 42
0.0
 43
0.0
 44
0.0
 45
0.0
 46
0.0
 47
0.0
 48
0.0
 49
0.0
140
0.0
141
0.0
142
1.0
143
1.0
 70
  1712
 72
     0
 73
     0
 74
     0
  7

 75
     0
147
1.0
148
0.0
149
0.0
100
AcDbLayout
  1
Model
 70
     1
 71
     0
 10
0.0
 20
0.0
 11
840.0
 21
594.0
 12
0.0
 22
0.0
 32
0.0
 14
0.0
 24
0.0
 34
0.0
 15
840.0
 25
594.0
 35
0.0
146
0.0
 13
0.0
 23
0.0
 33
0.0
 16
1.0
 26
0.0
 36
0.0
 17
0.0
 27
1.0
 37
0.0
 76
     0
330
1F
331
29
  0
MLINESTYLE
  5
18
102
{ACAD_REACTORS
330
17
102
}
330
17
100
AcDbMlineStyle
  2
Standard
 70
     0
  3

 62
   256
 51
90.0
 52
90.0
 71
     2
 49
0.5
 62
   256
  6
BYLAYER
 49
-0.5
 62
   256
  6
BYLAYER
  0
ACDBPLACEHOLDER
  5
F
102
{ACAD_REACTORS
330
E
102
}
330
E
  0
ENDSEC
  0
EOF
