  0
SECTION
  2
HEADER
  9
$ACADVER
  1
AC1015
  9
$ACADMAINTVER
 70
     6
  9
$DWGCODEPAGE
  3
DOS932
  9
$INSBASE
 10
0.0
 20
0.0
 30
0.0
  9
$EXTMIN
 10
0.0
 20
0.0
 30
0.0
  9
$EXTMAX
 10
840.0
 20
594.0
 30
0.0
  9
$LIMMIN
 10
0.0
 20
0.0
  9
$LIMMAX
 10
840.0
 20
594.0
  9
$ORTHOMODE
 70
     0
  9
$REGENMODE
 70
     1
  9
$FILLMODE
 70
     1
  9
$QTEXTMODE
 70
     0
  9
$MIRRTEXT
 70
     1
  9
$LTSCALE
 40
2.0
  9
$ATTMODE
 70
     1
  9
$TEXTSIZE
 40
7.0
  9
$TRACEWID
 40
1.0
  9
$TEXTSTYLE
  7
Standard
  9
$CLAYER
  8
0
  9
$CELTYPE
  6
ByLayer
  9
$CECOLOR
 62
   256
  9
$CELTSCALE
 40
1.0
  9
$DISPSILH
 70
     0
  9
$DIMSCALE
 40
1.0
  9
$DIMASZ
 40
6.0
  9
$DIMEXO
 40
2.0
  9
$DIMDLI
 40
3.75
  9
$DIMRND
 40
0.0
  9
$DIMDLE
 40
0.0
  9
$DIMEXE
 40
2.0
  9
$DIMTP
 40
0.0
  9
$DIMTM
 40
0.0
  9
$DIMTXT
 40
7.0
  9
$DIMCEN
 40
2.5
  9
$DIMTSZ
 40
0.0
  9
$DIMTOL
 70
     0
  9
$DIMLIM
 70
     0
  9
$DIMTIH
 70
     1
  9
$DIMTOH
 70
     1
  9
$DIMSE1
 70
     0
  9
$DIMSE2
 70
     0
  9
$DIMTAD
 70
     1
  9
$DIMZIN
 70
     0
  9
$DIMBLK
  1

  9
$DIMASO
 70
     1
  9
$DIMSHO
 70
     1
  9
$DIMPOST
  1

  9
$DIMAPOST
  1

  9
$DIMALT
 70
     0
  9
$DIMALTD
 70
     3
  9
$DIMALTF
 40
0.0393700787
  9
$DIMLFAC
 40
1.0
  9
$DIMTOFL
 70
     1
  9
$DIMTVP
 40
0.0
  9
$DIMTIX
 70
     0
  9
$DIMSOXD
 70
     0
  9
$DIMSAH
 70
     0
  9
$DIMBLK1
  1

  9
$DIMBLK2
  1

  9
$DIMSTYLE
  2
ISO-25
  9
$DIMCLRD
 70
     0
  9
$DIMCLRE
 70
     0
  9
$DIMCLRT
 70
     0
  9
$DIMTFAC
 40
1.0
  9
$DIMGAP
 40
3.048
  9
$DIMJUST
 70
     0
  9
$DIMSD1
 70
     0
  9
$DIMSD2
 70
     0
  9
$DIMTOLJ
 70
     0
  9
$DIMTZIN
 70
     0
  9
$DIMALTZ
 70
     0
  9
$DIMALTTZ
 70
     0
  9
$DIMUPT
 70
     0
  9
$DIMDEC
 70
     1
  9
$DIMTDEC
 70
     1
  9
$DIMALTU
 70
     2
  9
$DIMALTTD
 70
     3
  9
$DIMTXSTY
  7
Standard
  9
$DIMAUNIT
 70
     0
  9
$DIMADEC
 70
     2
  9
$DIMALTRND
 40
0.0
  9
$DIMAZIN
 70
     0
  9
$DIMDSEP
 70
    44
  9
$DIMATFIT
 70
     3
  9
$DIMFRAC
 70
     0
  9
$DIMLDRBLK
  1

  9
$DIMLUNIT
 70
     2
  9
$DIMLWD
 70
    -2
  9
$DIMLWE
 70
    -2
  9
$DIMTMOVE
 70
     0
  9
$LUNITS
 70
     2
  9
$LUPREC
 70
     1
  9
$SKETCHINC
 40
1.0
  9
$FILLETRAD
 40
10.0
  9
$AUNITS
 70
     0
  9
$AUPREC
 70
     2
  9
$MENU
  1
.
  9
$ELEVATION
 40
0.0
  9
$PELEVATION
 40
0.0
  9
$THICKNESS
 40
0.0
  9
$LIMCHECK
 70
     0
  9
$CHAMFERA
 40
10.0
  9
$CHAMFERB
 40
10.0
  9
$CHAMFERC
 40
20.0
  9
$CHAMFERD
 40
0.0
  9
$SKPOLY
 70
     0
  9
$TDCREATE
 40
2460440.395157813
  9
$TDUCREATE
 40
2460440.020157813
  9
$TDUPDATE
 40
2460440.395157824
  9
$TDUUPDATE
 40
2460440.020157824
  9
$TDINDWG
 40
0.0000000116
  9
$TDUSRTIMER
 40
0.0000000116
  9
$USRTIMER
 70
     1
  9
$ANGBASE
 50
0.0
  9
$ANGDIR
 70
     0
  9
$PDMODE
 70
     0
  9
$PDSIZE
 40
-1.0
  9
$PLINEWID
 40
0.0
  9
$SPLFRAME
 70
     0
  9
$SPLINETYPE
 70
     6
  9
$SPLINESEGS
 70
     8
  9
$HANDSEED
  5
252
  9
$SURFTAB1
 70
     6
  9
$SURFTAB2
 70
     6
  9
$SURFTYPE
 70
     6
  9
$SURFU
 70
     6
  9
$SURFV
 70
     6
  9
$UCSBASE
  2

  9
$UCSNAME
  2

  9
$UCSORG
 10
0.0
 20
0.0
 30
0.0
  9
$UCSXDIR
 10
1.0
 20
0.0
 30
0.0
  9
$UCSYDIR
 10
0.0
 20
1.0
 30
0.0
  9
$UCSORTHOREF
  2

  9
$UCSORTHOVIEW
 70
     0
  9
$UCSORGTOP
 10
0.0
 20
0.0
 30
0.0
  9
$UCSORGBOTTOM
 10
0.0
 20
0.0
 30
0.0
  9
$UCSORGLEFT
 10
0.0
 20
0.0
 30
0.0
  9
$UCSORGRIGHT
 10
0.0
 20
0.0
 30
0.0
  9
$UCSORGFRONT
 10
0.0
 20
0.0
 30
0.0
  9
$UCSORGBACK
 10
0.0
 20
0.0
 30
0.0
  9
$PUCSBASE
  2

  9
$PUCSNAME
  2

  9
$PUCSORG
 10
0.0
 20
0.0
 30
0.0
  9
$PUCSXDIR
 10
1.0
 20
0.0
 30
0.0
  9
$PUCSYDIR
 10
0.0
 20
1.0
 30
0.0
  9
$PUCSORTHOREF
  2

  9
$PUCSORTHOVIEW
 70
     0
  9
$PUCSORGTOP
 10
0.0
 20
0.0
 30
0.0
  9
$PUCSORGBOTTOM
 10
0.0
 20
0.0
 30
0.0
  9
$PUCSORGLEFT
 10
0.0
 20
0.0
 30
0.0
  9
$PUCSORGRIGHT
 10
0.0
 20
0.0
 30
0.0
  9
$PUCSORGFRONT
 10
0.0
 20
0.0
 30
0.0
  9
$PUCSORGBACK
 10
0.0
 20
0.0
 30
0.0
  9
$USERI1
 70
     0
  9
$USERI2
 70
     0
  9
$USERI3
 70
     0
  9
$USERI4
 70
     0
  9
$USERI5
 70
     0
  9
$USERR1
 40
0.0
  9
$USERR2
 40
0.0
  9
$USERR3
 40
0.0
  9
$USERR4
 40
0.0
  9
$USERR5
 40
0.0
  9
$WORLDVIEW
 70
     1
  9
$SHADEDGE
 70
     3
  9
$SHADEDIF
 70
    70
  9
$TILEMODE
 70
     1
  9
$MAXACTVP
 70
    64
  9
$PINSBASE
 10
0.0
 20
0.0
 30
0.0
  9
$PLIMCHECK
 70
     0
  9
$PEXTMIN
 10
1.0000000000E+20
 20
1.0000000000E+20
 30
1.0000000000E+20
  9
$PEXTMAX
 10
-1.0000000000E+20
 20
-1.0000000000E+20
 30
-1.0000000000E+20
  9
$PLIMMIN
 10
0.0
 20
0.0
  9
$PLIMMAX
 10
420.0
 20
297.0
  9
$UNITMODE
 70
     0
  9
$VISRETAIN
 70
     1
  9
$PLINEGEN
 70
     0
  9
$PSLTSCALE
 70
     1
  9
$TREEDEPTH
 70
  3020
  9
$CMLSTYLE
  2
Standard
  9
$CMLJUST
 70
     0
  9
$CMLSCALE
 40
20.0
  9
$PROXYGRAPHICS
 70
     1
  9
$MEASUREMENT
 70
     1
  9
$CELWEIGHT
370
    -1
  9
$ENDCAPS
280
     0
  9
$JOINSTYLE
280
     0
  9
$LWDISPLAY
290
     1
  9
$INSUNITS
 70
     4
  9
$HYPERLINKBASE
  1

  9
$STYLESHEET
  1

  9
$XEDIT
290
     1
  9
$CEPSNTYPE
380
     0
  9
$PSTYLEMODE
290
     1
  9
$FINGERPRINTGUID
  2
{78068D19-3258-4460-BD79-F2A4D90DE291}
  9
$VERSIONGUID
  2
{FAEB1C32-E019-11D5-929B-00C0DF256EC4}
  9
$EXTNAMES
290
     1
  9
$PSVPSCALE
 40
0.0
  9
$OLESTARTUP
290
     0
  0
ENDSEC
  0
SECTION
  2
CLASSES
  0
CLASS
  1
ACDBDICTIONARYWDFLT
  2
AcDbDictionaryWithDefault
  3
ObjectDBX Classes
 90
        0
280
     0
281
     0
  0
CLASS
  1
VISUALSTYLE
  2
AcDbVisualStyle
  3
ObjectDBX Classes
 90
     4095
280
     0
281
     0
  0
CLASS
  1
MATERIAL
  2
AcDbMaterial
  3
ObjectDBX Classes
 90
     1153
280
     0
281
     0
  0
CLASS
  1
ACDBPLACEHOLDER
  2
AcDbPlaceHolder
  3
ObjectDBX Classes
 90
        0
280
     0
281
     0
  0
CLASS
  1
LAYOUT
  2
AcDbLayout
  3
ObjectDBX Classes
 90
        0
280
     0
281
     0
  0
ENDSEC
  0
SECTION
  2
TABLES
  0
TABLE
  2
VPORT
  5
8
330
0
100
AcDbSymbolTable
 70
     1
  0
VPORT
  5
29
330
8
100
AcDbSymbolTableRecord
100
AcDbViewportTableRecord
  2
*Active
 70
     0
 10
0.0
 20
0.0
 11
1.0
 21
1.0
 12
420.0
 22
297.0
 13
0.0
 23
0.0
 14
10.0
 24
10.0
 15
10.0
 25
10.0
 16
0.0
 26
0.0
 36
1.0
 17
0.0
 27
0.0
 37
0.0
 40
594.0
 41
1.4141414141
 42
50.0
 43
0.0
 44
0.0
 50
0.0
 51
0.0
 71
     0
 72
  2000
 73
     1
 74
     3
 75
     0
 76
     0
 77
     0
 78
     0
281
     0
 65
     1
110
0.0
120
0.0
130
0.0
111
1.0
121
0.0
131
0.0
112
0.0
122
1.0
132
0.0
 79
     0
146
0.0
  0
ENDTAB
  0
TABLE
  2
LTYPE
  5
5
330
0
100
AcDbSymbolTable
 70
     6
  0
LTYPE
  5
14
330
5
100
AcDbSymbolTableRecord
100
AcDbLinetypeTableRecord
  2
ByBlock
 70
     0
  3

 72
    65
 73
     0
 40
0.0
  0
LTYPE
  5
15
330
5
100
AcDbSymbolTableRecord
100
AcDbLinetypeTableRecord
  2
ByLayer
 70
     0
  3

 72
    65
 73
     0
 40
0.0
  0
LTYPE
  5
16
330
5
100
AcDbSymbolTableRecord
100
AcDbLinetypeTableRecord
  2
Continuous
 70
     0
  3
Solid line
 72
    65
 73
     0
 40
0.0
  0
LTYPE
  5
3F
330
5
100
AcDbSymbolTableRecord
100
AcDbLinetypeTableRecord
  2
HIDDEN
 70
     0
  3
Hidden __ __ __ __ __ __ __ __ __ __ __ __ __ __
 72
    65
 73
     2
 40
1.905
 49
1.27
 74
     0
 49
-0.635
 74
     0
  0
LTYPE
  5
40
330
5
100
AcDbSymbolTableRecord
100
AcDbLinetypeTableRecord
  2
PHANTOM
 70
     0
  3
Phantom ______  __  __  ______  __  __  ______
 72
    65
 73
     6
 40
12.7
 49
6.35
 74
     0
 49
-1.27
 74
     0
 49
1.27
 74
     0
 49
-1.27
 74
     0
 49
1.27
 74
     0
 49
-1.27
 74
     0
  0
LTYPE
  5
41
330
5
100
AcDbSymbolTableRecord
100
AcDbLinetypeTableRecord
  2
CENTER
 70
     0
  3
Center ____ _ ____ _ ____ _ ____ _ ____ _ ____
 72
    65
 73
     4
 40
10.16
 49
6.35
 74
     0
 49
-1.27
 74
     0
 49
1.27
 74
     0
 49
-1.27
 74
     0
  0
LTYPE
  5
42
330
5
100
AcDbSymbolTableRecord
100
AcDbLinetypeTableRecord
  2
CENTERX2
 70
     0
  3
Center (2x) ________  __  ________  __  _____
 72
    65
 73
     4
 40
20.32
 49
12.7
 74
     0
 49
-2.54
 74
     0
 49
2.54
 74
     0
 49
-2.54
 74
     0
  0
LTYPE
  5
43
330
5
100
AcDbSymbolTableRecord
100
AcDbLinetypeTableRecord
  2
DOT2
 70
     0
  3
Dot (.5x) ........................................
 72
    65
 73
     2
 40
0.635
 49
0.0
 74
     0
 49
-0.635
 74
     0
  0
ENDTAB
  0
TABLE
  2
LAYER
  5
2
330
0
100
AcDbSymbolTable
 70
     1
  0
LAYER
  5
10
330
2
100
AcDbSymbolTableRecord
100
AcDbLayerTableRecord
  2
0
 70
     0
 62
     7
  6
Continuous
370
    -3
390
F
  0
ENDTAB
  0
TABLE
  2
STYLE
  5
3
330
0
100
AcDbSymbolTable
 70
     2
  0
STYLE
  5
11
330
3
100
AcDbSymbolTableRecord
100
AcDbTextStyleTableRecord
  2
Standard
 70
     0
 40
0.0
 41
1.0
 50
0.0
 71
     0
 42
2.5
  3
txt
  4
bigfont
  0
STYLE
  5
44
330
3
100
AcDbSymbolTableRecord
100
AcDbTextStyleTableRecord
  2
SLDTEXTSTYLE0
 70
     0
 40
0.0
 41
0.7
 50
0.0
 71
     0
 42
0.2
  3
TXT
  4
bigfont
  0
ENDTAB
  0
TABLE
  2
VIEW
  5
6
330
0
100
AcDbSymbolTable
 70
     0
  0
ENDTAB
  0
TABLE
  2
UCS
  5
7
330
0
100
AcDbSymbolTable
 70
     0
  0
ENDTAB
  0
TABLE
  2
APPID
  5
9
330
0
100
AcDbSymbolTable
 70
     1
  0
APPID
  5
12
330
9
100
AcDbSymbolTableRecord
100
AcDbRegAppTableRecord
  2
ACAD
 70
     0
  0
ENDTAB
  0
TABLE
  2
DIMSTYLE
  5
A
330
0
100
AcDbSymbolTable
 70
     1
100
AcDbDimStyleTable
  0
DIMSTYLE
105
27
330
A
100
AcDbSymbolTableRecord
100
AcDbDimStyleTableRecord
  2
ISO-25
 70
     0
 41
2.5
 42
0.625
 43
3.75
 44
1.25
 73
     0
 74
     0
 77
     1
 78
     8
140
2.5
141
2.5
143
0.0393700787
147
0.625
171
     3
172
     1
178
     0
271
     2
272
     2
274
     3
278
    44
283
     0
284
     8
340
11
  0
ENDTAB
  0
TABLE
  2
BLOCK_RECORD
  5
1
330
0
100
AcDbSymbolTable
 70
     1
  0
BLOCK_RECORD
  5
1F
330
1
100
AcDbSymbolTableRecord
100
AcDbBlockTableRecord
  2
*Model_Space
340
22
  0
BLOCK_RECORD
  5
1B
330
1
100
AcDbSymbolTableRecord
100
AcDbBlockTableRecord
  2
*Paper_Space
340
1E
  0
BLOCK_RECORD
  5
23
330
1
100
AcDbSymbolTableRecord
100
AcDbBlockTableRecord
  2
*Paper_Space0
340
26
  0
ENDTAB
  0
ENDSEC
  0
SECTION
  2
BLOCKS
  0
BLOCK
  5
20
330
1F
100
AcDbEntity
  8
0
100
AcDbBlockBegin
  2
*Model_Space
 70
     0
 10
0.0
 20
0.0
 30
0.0
  3
*Model_Space
  1

  0
ENDBLK
  5
21
330
1F
100
AcDbEntity
  8
0
100
AcDbBlockEnd
  0
BLOCK
  5
1C
330
1B
100
AcDbEntity
 67
     1
  8
0
100
AcDbBlockBegin
  2
*Paper_Space
 70
     0
 10
0.0
 20
0.0
 30
0.0
  3
*Paper_Space
  1

  0
ENDBLK
  5
1D
330
1B
100
AcDbEntity
 67
     1
  8
0
100
AcDbBlockEnd
  0
BLOCK
  5
24
330
23
100
AcDbEntity
  8
0
100
AcDbBlockBegin
  2
*Paper_Space0
 70
     0
 10
0.0
 20
0.0
 30
0.0
  3
*Paper_Space0
  1

  0
ENDBLK
  5
25
330
23
100
AcDbEntity
  8
0
100
AcDbBlockEnd
  0
ENDSEC
  0
SECTION
  2
ENTITIES
  0
MTEXT
  5
45
330
1F
100
AcDbEntity
  8
0
  6
Continuous
 62
     7
370
     0
100
AcDbMText
 10
193.7697098372
 20
460.5391145814
 30
0.0
 40
7.0
 41
0.0
 71
     1
 72
     1
  1
CHB-501N
  7
SLDTEXTSTYLE0
 73
     1
 44
1.0
  0
LINE
  5
46
330
1F
100
AcDbEntity
  8
0
  6
Continuous
 62
     7
370
    15
100
AcDbLine
 10
412.8249831697
 20
198.3378623235
 30
0.0
 11
412.9249848625
 21
198.3378623235
 31
0.0
  0
LINE
  5
47
330
1F
100
AcDbEntity
  8
0
  6
Continuous
 62
     7
370
    15
100
AcDbLine
 10
412.9249848625
 20
204.3378626085
 30
0.0
 11
412.8249831697
 21
204.3378626085
 31
0.0
  0
LINE
  5
48
330
1F
100
AcDbEntity
  8
0
  6
Continuous
 62
     7
370
    15
100
AcDbLine
 10
412.8249831697
 20
208.3378627985
 30
0.0
 11
412.9249848625
 21
208.3378627985
 31
0.0
  0
LINE
  5
49
330
1F
100
AcDbEntity
  8
0
  6
Continuous
 62
     7
370
    15
100
AcDbLine
 10
412.9249848625
 20
214.3378630834
 30
0.0
 11
412.8249831697
 21
214.3378630834
 31
0.0
  0
LINE
  5
4A
330
1F
100
AcDbEntity
  8
0
  6
Continuous
 62
     7
370
    15
100
AcDbLine
 10
414.1249753735
 20
217.8378627258
 30
0.0
 11
412.9249848625
 21
217.8378627258
 31
0.0
  0
LINE
  5
4B
330
1F
100
AcDbEntity
  8
0
  6
Continuous
 62
     7
370
    15
100
AcDbLine
 10
412.9249848625
 20
194.8378626811
 30
0.0
 11
414.1249753735
 21
194.8378626811
 31
0.0
  0
LINE
  5
4C
330
1F
100
AcDbEntity
  8
0
  6
Continuous
 62
     7
370
    15
100
AcDbLine
 10
725.6249882481
 20
112.3378659221
 30
0.0
 11
725.6249882481
 21
147.3378623458
 31
0.0
  0
LINE
  5
4D
330
1F
100
AcDbEntity
  8
0
  6
Continuous
 62
     7
370
    15
100
AcDbLine
 10
725.6249882481
 20
265.3378630611
 30
0.0
 11
725.6249882481
 21
300.3378594848
 31
0.0
  0
LINE
  5
4E
330
1F
100
AcDbEntity
  8
0
  6
Continuous
 62
     7
370
    15
100
AcDbLine
 10
405.0201721689
 20
210.2378625977
 30
0.0
 11
405.0201721689
 21
201.6378627713
 31
0.0
  0
LINE
  5
4F
330
1F
100
AcDbEntity
  8
0
  6
Continuous
 62
     7
370
    15
100
AcDbLine
 10
405.6249804995
 20
214.3376088324
 30
0.0
 11
405.6249804995
 21
213.5378625798
 31
0.0
  0
LINE
  5
50
330
1F
100
AcDbEntity
  8
0
  6
Continuous
 62
     7
370
    15
100
AcDbLine
 10
405.6249804995
 20
199.1378628271
 30
0.0
 11
405.6249804995
 21
198.3381165746
 31
0.0
  0
LINE
  5
51
330
1F
100
AcDbEntity
  8
0
  6
Continuous
 62
     7
370
    15
100
AcDbLine
 10
407.0249743959
 20
214.6378625738
 30
0.0
 11
407.0249743959
 21
214.3378630834
 31
0.0
  0
ARC
  5
52
330
1F
100
AcDbEntity
  8
0
  6
Continuous
 62
     7
370
    15
100
AcDbCircle
 10
409.2249813339
 20
211.5307198464
 30
0.0
 40
3.807142857143219
100
AcDbArc
 50
77.9663271603
 51
90.0
  0
ARC
  5
53
330
1F
100
AcDbEntity
  8
0
  6
Continuous
 62
     7
370
    15
100
AcDbCircle
 10
409.2249813339
 20
211.5307198464
 30
0.0
 40
3.807142857143245
100
AcDbArc
 50
90.0
 51
125.3002484399
  0
LINE
  5
54
330
1F
100
AcDbEntity
  8
0
  6
Continuous
 62
     7
370
    15
100
AcDbLine
 10
407.1249760887
 20
197.937863003
 30
0.0
 11
407.1249760887
 21
197.5378627512
 31
0.0
  0
ARC
  5
55
330
1F
100
AcDbEntity
  8
0
  6
Continuous
 62
     7
370
    15
100
AcDbCircle
 10
407.3249813339
 20
198.3378627035
 30
0.0
 40
0.4000000000007731
100
AcDbArc
 50
270.0
 51
0.0
  0
LINE
  5
56
330
1F
100
AcDbEntity
  8
0
  6
Continuous
 62
     7
370
    15
100
AcDbLine
 10
407.7249862453
 20
213.5378625798
 30
0.0
 11
407.7249862453
 21
213.0878628786
 31
0.0
  0
LINE
  5
57
330
1F
100
AcDbEntity
  8
0
  6
Continuous
 62
     7
370
    15
100
AcDbLine
 10
407.7249862453
 20
199.5878625284
 30
0.0
 11
407.7249862453
 21
199.1378628271
 31
0.0
  0
SPLINE
  5
58
330
1F
100
AcDbEntity
  8
0
  6
Continuous
 62
     7
370
    15
100
AcDbSpline
210
0.0
220
0.0
230
1.0
 70
     8
 71
     3
 72
    11
 73
     7
 74
     0
 42
0.00000001
 43
0.00000001
 40
0.0
 40
0.0
 40
0.0
 40
0.0
 40
0.2262236325897269
 40
0.4679485216363518
 40
0.7254888709054915
 40
1.0
 40
1.0
 40
1.0
 40
1.0
 10
410.4454912445045
 20
214.5682974341165
 30
0.0
 10
410.4483183470424
 20
214.5453982495474
 30
0.0
 10
410.4541662703473
 20
214.498030786462
 30
0.0
 10
410.470925998853
 20
214.173248130208
 30
0.0
 10
410.4845275595024
 20
213.6727489363763
 30
0.0
 10
410.4850614761016
 20
213.2489276921937
 30
0.0
 10
410.4853369495369
 20
213.0302577833484
 30
0.0
  0
SPLINE
  5
59
330
1F
100
AcDbEntity
  8
0
  6
Continuous
 62
     7
370
    15
100
AcDbSpline
210
0.0
220
0.0
230
1.0
 70
     8
 71
     3
 72
    12
 73
     8
 74
     0
 42
0.00000001
 43
0.00000001
 40
0.0
 40
0.0
 40
0.0
 40
0.0
 40
0.2489433810545054
 40
0.4822897574529931
 40
0.6998115288059334
 40
0.9035368986525243
 40
1.0
 40
1.0
 40
1.0
 40
1.0
 10
410.4853369495369
 20
199.4716269518088
 30
0.0
 10
410.4839110736147
 20
199.3342923515139
 30
0.0
 10
410.4811486569168
 20
199.0682275508127
 30
0.0
 10
410.4702476938578
 20
198.732425596684
 30
0.0
 10
410.4677373875905
 20
198.4992495378488
 30
0.0
 10
410.4725265452668
 20
198.3791434499474
 30
0.0
 10
410.4989570477201
 20
198.377797031127
 30
0.0
 10
410.5074502727485
 20
198.3773643704902
 30
0.0
  0
LINE
  5
5A
330
1F
100
AcDbEntity
  8
0
  6
Continuous
 62
     7
370
    15
100
AcDbLine
 10
410.4844875833
 20
213.0802576984
 30
0.0
 11
410.4844875833
 21
199.4216270367
 31
0.0
  0
LINE
  5
5B
330
1F
100
AcDbEntity
  8
0
  6
Continuous
 62
     7
370
    15
100
AcDbLine
 10
408.9608736536
 20
217.0181461233
 30
0.0
 11
410.4482330582
 21
214.5379987168
 31
0.0
  0
LINE
  5
5C
330
1F
100
AcDbEntity
  8
0
  6
Continuous
 62
     7
370
    15
100
AcDbLine
 10
412.9249848625
 20
216.241108309
 30
0.0
 11
411.5336932442
 21
218.5610719579
 31
0.0
  0
LINE
  5
5D
330
1F
100
AcDbEntity
  8
0
  6
Continuous
 62
     7
370
    15
100
AcDbLine
 10
410.5127252838
 20
198.245278615
 30
0.0
 11
408.9436479113
 21
195.6288600894
 31
0.0
  0
LINE
  5
5E
330
1F
100
AcDbEntity
  8
0
  6
Continuous
 62
     7
370
    15
100
AcDbLine
 10
411.5164675018
 20
194.0859342548
 30
0.0
 11
412.9249848625
 21
196.4346170979
 31
0.0
  0
LINE
  5
5F
330
1F
100
AcDbEntity
  8
0
  6
Continuous
 62
     7
370
    15
100
AcDbLine
 10
411.5535862944
 20
218.5255634221
 30
0.0
 11
411.4636279842
 21
218.6393505516
 31
0.0
  0
SPLINE
  5
60
330
1F
100
AcDbEntity
  8
0
  6
Continuous
 62
     7
370
    15
100
AcDbSpline
210
0.0
220
0.0
230
1.0
 70
     8
 71
     3
 72
    20
 73
    16
 74
     0
 42
0.00000001
 43
0.00000001
 40
0.0
 40
0.0
 40
0.0
 40
0.0
 40
0.0337795030354787
 40
0.1101057769667599
 40
0.1739290778953664
 40
0.2252747011104207
 40
0.2665371383718143
 40
0.3037733648558273
 40
0.3388589648229627
 40
0.3726389433837576
 40
0.4139176712929965
 40
0.6259828174977032
 40
0.8390272844879489
 40
0.9659462446907114
 40
1.0
 40
1.0
 40
1.0
 40
1.0
 10
411.3513179323173
 20
218.7814200850974
 30
0.0
 10
411.31066262937
 20
218.8376056390645
 30
0.0
 10
411.1781448799487
 20
219.020744925257
 30
0.0
 10
410.8682749457292
 20
219.1979180690553
 30
0.0
 10
410.4810009933031
 20
219.3208769955744
 30
0.0
 10
410.1111527479895
 20
219.3356643985634
 30
0.0
 10
409.7768365592378
 20
219.2850762906282
 30
0.0
 10
409.5023603484245
 20
219.1840212186005
 30
0.0
 10
409.2748460471784
 20
219.0493164819224
 30
0.0
 10
409.0688301573367
 20
218.8731268694453
 30
0.0
 10
408.7242609317837
 20
218.4306492391543
 30
0.0
 10
408.543213051652
 20
217.7439654177251
 30
0.0
 10
408.3933984127528
 20
216.563134078153
 30
0.0
 10
408.3382806834566
 20
215.6584906175171
 30
0.0
 10
408.3317191162926
 20
215.2439026897521
 30
0.0
 10
408.3303310176826
 20
215.1561966719877
 30
0.0
  0
SPLINE
  5
61
330
1F
100
AcDbEntity
  8
0
  6
Continuous
 62
     7
370
    15
100
AcDbSpline
210
0.0
220
0.0
230
1.0
 70
     8
 71
     3
 72
    19
 73
    15
 74
     0
 42
0.00000001
 43
0.00000001
 40
0.0
 40
0.0
 40
0.0
 40
0.0
 40
0.0102737072591294
 40
0.1295969162292759
 40
0.3268123458649628
 40
0.5525079253641859
 40
0.585853198266546
 40
0.6186007254317911
 40
0.6529065940735373
 40
0.6960059810056629
 40
0.7523135027976446
 40
0.8223141371033088
 40
0.9054608643355189
 40
1.0
 40
1.0
 40
1.0
 40
1.0
 10
408.3274848958945
 20
197.5378627511512
 30
0.0
 10
408.3278080781923
 20
197.5106637817643
 30
0.0
 10
408.3318848372541
 20
197.1675644050498
 30
0.0
 10
408.3716727305609
 20
196.3475742527475
 30
0.0
 10
408.5066658155093
 20
195.1251471384103
 30
0.0
 10
408.5970558951918
 20
194.4817764150237
 30
0.0
 10
408.9479471372132
 20
193.9416847531046
 30
0.0
 10
409.1171689077037
 20
193.7538362643591
 30
0.0
 10
409.3538871506244
 20
193.5773646106589
 30
0.0
 10
409.6675086796988
 20
193.423879360521
 30
0.0
 10
410.0710018900919
 20
193.3221000236366
 30
0.0
 10
410.5568551059819
 20
193.3452606499837
 30
0.0
 10
411.08662236482
 20
193.555584266525
 30
0.0
 10
411.3518415523752
 20
193.8774036438635
 30
0.0
 10
411.4929534694649
 20
194.0486301290642
 30
0.0
  0
LINE
  5
62
330
1F
100
AcDbEntity
  8
0
  6
Continuous
 62
     7
370
    15
100
AcDbLine
 10
725.6249882481
 20
76.3378674718
 30
0.0
 11
725.6249882481
 21
111.3378638956
 31
0.0
  0
LINE
  5
63
330
1F
100
AcDbEntity
  8
0
  6
Continuous
 62
     7
370
    15
100
AcDbLine
 10
725.6249882481
 20
301.3378615114
 30
0.0
 11
725.6249882481
 21
336.3378579351
 31
0.0
  0
LINE
  5
64
330
1F
100
AcDbEntity
  8
0
  6
Continuous
 62
     7
370
    15
100
AcDbLine
 10
722.6249821684
 20
111.3378638956
 30
0.0
 11
722.6249821684
 21
112.3378659221
 31
0.0
  0
LINE
  5
65
330
1F
100
AcDbEntity
  8
0
  6
Continuous
 62
     7
370
    15
100
AcDbLine
 10
722.6249821684
 20
147.3378623458
 30
0.0
 11
722.6249821684
 21
148.3378643724
 31
0.0
  0
LINE
  5
66
330
1F
100
AcDbEntity
  8
0
  6
Continuous
 62
     7
370
    15
100
AcDbLine
 10
717.6249869368
 20
148.3378643724
 30
0.0
 11
717.6249869368
 21
147.3378623458
 31
0.0
  0
LINE
  5
67
330
1F
100
AcDbEntity
  8
0
  6
Continuous
 62
     7
370
    15
100
AcDbLine
 10
717.6249869368
 20
112.3378659221
 30
0.0
 11
717.6249869368
 21
111.3378638956
 31
0.0
  0
LINE
  5
68
330
1F
100
AcDbEntity
  8
0
  6
Continuous
 62
     7
370
    15
100
AcDbLine
 10
717.6249869368
 20
301.3378615114
 30
0.0
 11
717.6249869368
 21
300.3378594848
 31
0.0
  0
LINE
  5
69
330
1F
100
AcDbEntity
  8
0
  6
Continuous
 62
     7
370
    15
100
AcDbLine
 10
717.6249869368
 20
265.3378630611
 30
0.0
 11
717.6249869368
 21
264.3378610345
 31
0.0
  0
LINE
  5
6A
330
1F
100
AcDbEntity
  8
0
  6
Continuous
 62
     7
370
    15
100
AcDbLine
 10
722.6249821684
 20
264.3378610345
 30
0.0
 11
722.6249821684
 21
265.3378630611
 31
0.0
  0
LINE
  5
6B
330
1F
100
AcDbEntity
  8
0
  6
Continuous
 62
     7
370
    15
100
AcDbLine
 10
722.6249821684
 20
300.3378594848
 30
0.0
 11
722.6249821684
 21
301.3378615114
 31
0.0
  0
LINE
  5
6C
330
1F
100
AcDbEntity
  8
0
  6
Continuous
 62
     7
370
    15
100
AcDbLine
 10
405.824983885
 20
213.0878628786
 30
0.0
 11
405.824983885
 21
212.7950518015
 31
0.0
  0
LINE
  5
6D
330
1F
100
AcDbEntity
  8
0
  6
Continuous
 62
     7
370
    15
100
AcDbLine
 10
405.824983885
 20
199.8806736055
 30
0.0
 11
405.824983885
 21
199.5878625284
 31
0.0
  0
LINE
  5
6E
330
1F
100
AcDbEntity
  8
0
  6
Continuous
 62
     7
370
    15
100
AcDbLine
 10
699.1249866983
 20
71.337857339
 30
0.0
 11
699.1249866983
 21
56.337856743
 31
0.0
  0
LINE
  5
6F
330
1F
100
AcDbEntity
  8
0
  6
Continuous
 62
     7
370
    15
100
AcDbLine
 10
699.1249866983
 20
71.337857339
 30
0.0
 11
714.1249872944
 21
71.337857339
 31
0.0
  0
ARC
  5
70
330
1F
100
AcDbEntity
  8
0
  6
Continuous
 62
     7
370
    15
100
AcDbCircle
 10
699.1249813339
 20
71.3378627035
 30
0.0
 40
14.99999999999999
100
AcDbArc
 50
270.0
 51
0.0
  0
LINE
  5
71
330
1F
100
AcDbEntity
  8
0
  6
Continuous
 62
     7
370
    15
100
AcDbLine
 10
699.1249866983
 20
71.337857339
 30
0.0
 11
699.1249866983
 21
341.3378680679
 31
0.0
  0
LINE
  5
72
330
1F
100
AcDbEntity
  8
0
  6
Continuous
 62
     7
370
    15
100
AcDbLine
 10
714.1249872944
 20
341.3378680679
 30
0.0
 11
699.1249866983
 21
341.3378680679
 31
0.0
  0
LINE
  5
73
330
1F
100
AcDbEntity
  8
0
  6
Continuous
 62
     7
370
    15
100
AcDbLine
 10
714.1249872944
 20
71.337857339
 30
0.0
 11
714.1249872944
 21
341.3378680679
 31
0.0
  0
LINE
  5
74
330
1F
100
AcDbEntity
  8
0
  6
Continuous
 62
     7
370
    15
100
AcDbLine
 10
429.1249759695
 20
56.337856743
 30
0.0
 11
699.1249866983
 21
56.337856743
 31
0.0
  0
LINE
  5
75
330
1F
100
AcDbEntity
  8
0
  6
Continuous
 62
     7
370
    15
100
AcDbLine
 10
429.1249759695
 20
56.337856743
 30
0.0
 11
429.1249759695
 21
71.337857339
 31
0.0
  0
LINE
  5
76
330
1F
100
AcDbEntity
  8
0
  6
Continuous
 62
     7
370
    15
100
AcDbLine
 10
429.1249759695
 20
71.337857339
 30
0.0
 11
699.1249866983
 21
71.337857339
 31
0.0
  0
LINE
  5
77
330
1F
100
AcDbEntity
  8
0
  6
Continuous
 62
     7
370
    15
100
AcDbLine
 10
434.1249861023
 20
336.3378579351
 30
0.0
 11
694.1249765655
 21
336.3378579351
 31
0.0
  0
LINE
  5
78
330
1F
100
AcDbEntity
  8
0
  6
Continuous
 62
     7
370
    15
100
AcDbLine
 10
434.1249861023
 20
76.3378674718
 30
0.0
 11
434.1249861023
 21
336.3378579351
 31
0.0
  0
LINE
  5
79
330
1F
100
AcDbEntity
  8
0
  6
Continuous
 62
     7
370
    15
100
AcDbLine
 10
429.1249759695
 20
71.337857339
 30
0.0
 11
429.1249759695
 21
341.3378680679
 31
0.0
  0
LINE
  5
7A
330
1F
100
AcDbEntity
  8
0
  6
Continuous
 62
     7
370
    15
100
AcDbLine
 10
429.1249759695
 20
341.3378680679
 30
0.0
 11
699.1249866983
 21
341.3378680679
 31
0.0
  0
LINE
  5
7B
330
1F
100
AcDbEntity
  8
0
  6
Continuous
 62
     7
370
    15
100
AcDbLine
 10
694.1249765655
 20
76.3378674718
 30
0.0
 11
434.1249861023
 21
76.3378674718
 31
0.0
  0
LINE
  5
7C
330
1F
100
AcDbEntity
  8
0
  6
Continuous
 62
     7
370
    15
100
AcDbLine
 10
694.1249765655
 20
76.3378674718
 30
0.0
 11
694.1249765655
 21
336.3378579351
 31
0.0
  0
ARC
  5
7D
330
1F
100
AcDbEntity
  8
0
  6
Continuous
 62
     7
370
    15
100
AcDbCircle
 10
699.1249813339
 20
341.3378627035
 30
0.0
 40
15.0
100
AcDbArc
 50
0.0
 51
90.0
  0
LINE
  5
7E
330
1F
100
AcDbEntity
  8
0
  6
Continuous
 62
     7
370
    15
100
AcDbLine
 10
699.1249866983
 20
356.3378686639
 30
0.0
 11
699.1249866983
 21
341.3378680679
 31
0.0
  0
ARC
  5
7F
330
1F
100
AcDbEntity
  8
0
  6
Continuous
 62
     7
370
    15
100
AcDbCircle
 10
429.1249813339
 20
71.3378627035
 30
0.0
 40
14.99999999999999
100
AcDbArc
 50
180.0
 51
270.0
  0
LINE
  5
80
330
1F
100
AcDbEntity
  8
0
  6
Continuous
 62
     7
370
    15
100
AcDbLine
 10
414.1249753735
 20
71.337857339
 30
0.0
 11
429.1249759695
 21
71.337857339
 31
0.0
  0
LINE
  5
81
330
1F
100
AcDbEntity
  8
0
  6
Continuous
 62
     7
370
    15
100
AcDbLine
 10
429.1249759695
 20
341.3378680679
 30
0.0
 11
429.1249759695
 21
356.3378686639
 31
0.0
  0
LINE
  5
82
330
1F
100
AcDbEntity
  8
0
  6
Continuous
 62
     7
370
    15
100
AcDbLine
 10
429.1249759695
 20
356.3378686639
 30
0.0
 11
699.1249866983
 21
356.3378686639
 31
0.0
  0
LINE
  5
83
330
1F
100
AcDbEntity
  8
0
  6
Continuous
 62
     7
370
    15
100
AcDbLine
 10
414.1249753735
 20
196.3503705892
 30
0.0
 11
414.1249753735
 21
71.337857339
 31
0.0
  0
LINE
  5
84
330
1F
100
AcDbEntity
  8
0
  6
Continuous
 62
     7
370
    15
100
AcDbLine
 10
414.1249753735
 20
216.3253548178
 30
0.0
 11
414.1249753735
 21
341.3378680679
 31
0.0
  0
LINE
  5
85
330
1F
100
AcDbEntity
  8
0
  6
Continuous
 62
     7
370
    15
100
AcDbLine
 10
414.1249753735
 20
341.3378680679
 30
0.0
 11
429.1249759695
 21
341.3378680679
 31
0.0
  0
ARC
  5
86
330
1F
100
AcDbEntity
  8
0
  6
Continuous
 62
     7
370
    15
100
AcDbCircle
 10
429.1249813339
 20
341.3378627035
 30
0.0
 40
15.0
100
AcDbArc
 50
90.0
 51
180.0
  0
LINE
  5
87
330
1F
100
AcDbEntity
  8
0
  6
Continuous
 62
     7
370
    15
100
AcDbLine
 10
412.9249848625
 20
217.3723457935
 30
0.0
 11
414.1249753735
 21
217.3723457935
 31
0.0
  0
LINE
  5
88
330
1F
100
AcDbEntity
  8
0
  6
Continuous
 62
     7
370
    15
100
AcDbLine
 10
414.1249753735
 20
216.3253548178
 30
0.0
 11
414.1249753735
 21
196.3503705892
 31
0.0
  0
LINE
  5
89
330
1F
100
AcDbEntity
  8
0
  6
Continuous
 62
     7
370
    15
100
AcDbLine
 10
412.9249848625
 20
195.3033796134
 30
0.0
 11
414.1249753735
 21
195.3033796134
 31
0.0
  0
LINE
  5
8A
330
1F
100
AcDbEntity
  8
0
  6
Continuous
 62
     7
370
    15
100
AcDbLine
 10
412.9249848625
 20
195.3033796134
 30
0.0
 11
412.9249848625
 21
217.3723457935
 31
0.0
  0
LINE
  5
8B
330
1F
100
AcDbEntity
  8
0
  6
Continuous
 62
     7
370
    15
100
AcDbLine
 10
412.8249831697
 20
198.3378623235
 30
0.0
 11
412.8249831697
 21
204.3378626085
 31
0.0
  0
LINE
  5
8C
330
1F
100
AcDbEntity
  8
0
  6
Continuous
 62
     7
370
    15
100
AcDbLine
 10
412.8249831697
 20
211.3378625917
 30
0.0
 11
412.8249831697
 21
214.3378630834
 31
0.0
  0
LINE
  5
8D
330
1F
100
AcDbEntity
  8
0
  6
Continuous
 62
     7
370
    15
100
AcDbLine
 10
412.8249831697
 20
208.3378627985
 30
0.0
 11
412.8249831697
 21
211.3378625917
 31
0.0
  0
LINE
  5
8E
330
1F
100
AcDbEntity
  8
0
  6
Continuous
 62
     7
370
    15
100
AcDbLine
 10
412.9249848625
 20
217.3723457935
 30
0.0
 11
412.9249848625
 21
217.8378627258
 31
0.0
  0
LINE
  5
8F
330
1F
100
AcDbEntity
  8
0
  6
Continuous
 62
     7
370
    15
100
AcDbLine
 10
412.9249848625
 20
194.8378626811
 30
0.0
 11
412.9249848625
 21
195.3033796134
 31
0.0
  0
LINE
  5
90
330
1F
100
AcDbEntity
  8
0
  6
Continuous
 62
     7
370
    15
100
AcDbLine
 10
715.0263436338
 20
112.3378659221
 30
0.0
 11
725.6249882481
 21
112.3378659221
 31
0.0
  0
LINE
  5
91
330
1F
100
AcDbEntity
  8
0
  6
Continuous
 62
     7
370
    15
100
AcDbLine
 10
715.0263436338
 20
147.3378623458
 30
0.0
 11
715.0263436338
 21
112.3378659221
 31
0.0
  0
LINE
  5
92
330
1F
100
AcDbEntity
  8
0
  6
Continuous
 62
     7
370
    15
100
AcDbLine
 10
715.0263436338
 20
147.3378623458
 30
0.0
 11
725.6249882481
 21
147.3378623458
 31
0.0
  0
LINE
  5
93
330
1F
100
AcDbEntity
  8
0
  6
Continuous
 62
     7
370
    15
100
AcDbLine
 10
715.0263436338
 20
265.3378630611
 30
0.0
 11
725.6249882481
 21
265.3378630611
 31
0.0
  0
LINE
  5
94
330
1F
100
AcDbEntity
  8
0
  6
Continuous
 62
     7
370
    15
100
AcDbLine
 10
715.0263436338
 20
300.3378594848
 30
0.0
 11
715.0263436338
 21
265.3378630611
 31
0.0
  0
LINE
  5
95
330
1F
100
AcDbEntity
  8
0
  6
Continuous
 62
     7
370
    15
100
AcDbLine
 10
715.0263436338
 20
300.3378594848
 30
0.0
 11
725.6249882481
 21
300.3378594848
 31
0.0
  0
LINE
  5
96
330
1F
100
AcDbEntity
  8
0
  6
Continuous
 62
     7
370
    15
100
AcDbLine
 10
714.5628281137
 20
147.3378623458
 30
0.0
 11
714.5628281137
 21
112.3378659221
 31
0.0
  0
LINE
  5
97
330
1F
100
AcDbEntity
  8
0
  6
Continuous
 62
     7
370
    15
100
AcDbLine
 10
714.5628281137
 20
147.3378623458
 30
0.0
 11
715.0263436338
 21
147.3378623458
 31
0.0
  0
LINE
  5
98
330
1F
100
AcDbEntity
  8
0
  6
Continuous
 62
     7
370
    15
100
AcDbLine
 10
714.5628281137
 20
112.3378659221
 30
0.0
 11
715.0263436338
 21
112.3378659221
 31
0.0
  0
LINE
  5
99
330
1F
100
AcDbEntity
  8
0
  6
Continuous
 62
     7
370
    15
100
AcDbLine
 10
714.5628281137
 20
300.3378594848
 30
0.0
 11
714.5628281137
 21
265.3378630611
 31
0.0
  0
LINE
  5
9A
330
1F
100
AcDbEntity
  8
0
  6
Continuous
 62
     7
370
    15
100
AcDbLine
 10
714.5628281137
 20
300.3378594848
 30
0.0
 11
715.0263436338
 21
300.3378594848
 31
0.0
  0
LINE
  5
9B
330
1F
100
AcDbEntity
  8
0
  6
Continuous
 62
     7
370
    15
100
AcDbLine
 10
714.5628281137
 20
265.3378630611
 30
0.0
 11
715.0263436338
 21
265.3378630611
 31
0.0
  0
LINE
  5
9C
330
1F
100
AcDbEntity
  8
0
  6
Continuous
 62
     7
370
    15
100
AcDbLine
 10
714.1249872944
 20
147.3378623458
 30
0.0
 11
714.5628281137
 21
147.3378623458
 31
0.0
  0
LINE
  5
9D
330
1F
100
AcDbEntity
  8
0
  6
Continuous
 62
     7
370
    15
100
AcDbLine
 10
714.1249872944
 20
112.3378659221
 30
0.0
 11
714.5628281137
 21
112.3378659221
 31
0.0
  0
LINE
  5
9E
330
1F
100
AcDbEntity
  8
0
  6
Continuous
 62
     7
370
    15
100
AcDbLine
 10
714.1249872944
 20
300.3378594848
 30
0.0
 11
714.5628281137
 21
300.3378594848
 31
0.0
  0
LINE
  5
9F
330
1F
100
AcDbEntity
  8
0
  6
Continuous
 62
     7
370
    15
100
AcDbLine
 10
714.1249872944
 20
265.3378630611
 30
0.0
 11
714.5628281137
 21
265.3378630611
 31
0.0
  0
LINE
  5
A0
330
1F
100
AcDbEntity
  8
0
  6
Continuous
 62
     7
370
    15
100
AcDbLine
 10
406.8075217506
 20
199.8378625694
 30
0.0
 11
406.0770072243
 21
199.8378625694
 31
0.0
  0
ARC
  5
A1
330
1F
100
AcDbEntity
  8
0
  6
Continuous
 62
     7
370
    15
100
AcDbCircle
 10
406.2171357917
 20
200.9266763904
 30
0.0
 40
1.097793948007182
100
AcDbArc
 50
174.1870171141
 51
262.6664383425
  0
LINE
  5
A2
330
1F
100
AcDbEntity
  8
0
  6
Continuous
 62
     7
370
    15
100
AcDbLine
 10
405.1249869368
 20
201.0378628592
 30
0.0
 11
405.8555014631
 21
201.0378628592
 31
0.0
  0
ARC
  5
A3
330
1F
100
AcDbEntity
  8
0
  6
Continuous
 62
     7
370
    15
100
AcDbCircle
 10
406.9476430236
 20
200.9266706033
 30
0.0
 40
1.097787277143248
100
AcDbArc
 50
174.1866780666
 51
262.6667773901
  0
ARC
  5
A4
330
1F
100
AcDbEntity
  8
0
  6
Continuous
 62
     7
370
    15
100
AcDbCircle
 10
406.9476430236
 20
211.7490548037
 30
0.0
 40
1.097787277143218
100
AcDbArc
 50
97.3332226099
 51
185.8133219334
  0
LINE
  5
A5
330
1F
100
AcDbEntity
  8
0
  6
Continuous
 62
     7
370
    15
100
AcDbLine
 10
406.8075217506
 20
212.8378628376
 30
0.0
 11
410.3509582779
 21
212.8378628376
 31
0.0
  0
LINE
  5
A6
330
1F
100
AcDbEntity
  8
0
  6
Continuous
 62
     7
370
    15
100
AcDbLine
 10
410.3509582779
 20
212.8378628376
 30
0.0
 11
410.3509582779
 21
199.8378625694
 31
0.0
  0
LINE
  5
A7
330
1F
100
AcDbEntity
  8
0
  6
Continuous
 62
     7
370
    15
100
AcDbLine
 10
410.3509582779
 20
199.8378625694
 30
0.0
 11
406.8075217506
 21
199.8378625694
 31
0.0
  0
LINE
  5
A8
330
1F
100
AcDbEntity
  8
0
  6
Continuous
 62
     7
370
    15
100
AcDbLine
 10
405.8555014631
 20
211.6378625478
 30
0.0
 11
405.8555014631
 21
201.0378628592
 31
0.0
  0
LINE
  5
A9
330
1F
100
AcDbEntity
  8
0
  6
Continuous
 62
     7
370
    15
100
AcDbLine
 10
405.8555014631
 20
211.6378625478
 30
0.0
 11
405.1249869368
 21
211.6378625478
 31
0.0
  0
LINE
  5
AA
330
1F
100
AcDbEntity
  8
0
  6
Continuous
 62
     7
370
    15
100
AcDbLine
 10
405.1249869368
 20
211.6378625478
 30
0.0
 11
405.1249869368
 21
201.0378628592
 31
0.0
  0
LINE
  5
AB
330
1F
100
AcDbEntity
  8
0
  6
Continuous
 62
     7
370
    15
100
AcDbLine
 10
406.0770072243
 20
212.8378628376
 30
0.0
 11
406.8075217506
 21
212.8378628376
 31
0.0
  0
ARC
  5
AC
330
1F
100
AcDbEntity
  8
0
  6
Continuous
 62
     7
370
    15
100
AcDbCircle
 10
406.2171357917
 20
211.7490490166
 30
0.0
 40
1.097793948007137
100
AcDbArc
 50
97.3335616575
 51
185.8129828859
  0
LINE
  5
AD
330
1F
100
AcDbEntity
  8
0
  6
Continuous
 62
     7
370
    15
100
AcDbLine
 10
410.4324974319
 20
212.8378628376
 30
0.0
 11
410.3509582779
 21
212.8378628376
 31
0.0
  0
LINE
  5
AE
330
1F
100
AcDbEntity
  8
0
  6
Continuous
 62
     7
370
    15
100
AcDbLine
 10
410.3509582779
 20
199.8378625694
 30
0.0
 11
410.4844875833
 21
199.8378625694
 31
0.0
  0
LINE
  5
AF
330
1F
100
AcDbEntity
  8
0
  6
Continuous
 62
     7
370
    15
100
AcDbLine
 10
405.1249869368
 20
201.6378627713
 30
0.0
 11
405.0201721689
 21
201.6378627713
 31
0.0
  0
LINE
  5
B0
330
1F
100
AcDbEntity
  8
0
  6
Continuous
 62
     7
370
    15
100
AcDbLine
 10
405.1249869368
 20
210.2378625977
 30
0.0
 11
405.0201721689
 21
210.2378625977
 31
0.0
  0
LINE
  5
B1
330
1F
100
AcDbEntity
  8
0
  6
Continuous
 62
     7
370
    15
100
AcDbLine
 10
410.4509152672
 20
213.5378625798
 30
0.0
 11
405.6249804995
 21
213.5378625798
 31
0.0
  0
LINE
  5
B2
330
1F
100
AcDbEntity
  8
0
  6
Continuous
 62
     7
370
    15
100
AcDbLine
 10
410.4534484646
 20
214.3378630834
 30
0.0
 11
405.6255914471
 21
214.3378630834
 31
0.0
  0
LINE
  5
B3
330
1F
100
AcDbEntity
  8
0
  6
Continuous
 62
     7
370
    15
100
AcDbLine
 10
410.4908652803
 20
199.1378628271
 30
0.0
 11
405.6249804995
 21
199.1378628271
 31
0.0
  0
LINE
  5
B4
330
1F
100
AcDbEntity
  8
0
  6
Continuous
 62
     7
370
    15
100
AcDbLine
 10
410.4991354248
 20
198.3378623235
 30
0.0
 11
405.6255914471
 21
198.3378623235
 31
0.0
  0
LINE
  5
B5
330
1F
100
AcDbEntity
  8
0
  6
Continuous
 62
     7
370
    15
100
AcDbLine
 10
409.2249818346
 20
214.6378625738
 30
0.0
 11
410.3883452913
 21
214.6378625738
 31
0.0
  0
LINE
  5
B6
330
1F
100
AcDbEntity
  8
0
  6
Continuous
 62
     7
370
    15
100
AcDbLine
 10
410.5514981052
 20
214.6378625738
 30
0.0
 11
410.6138296625
 21
214.6378625738
 31
0.0
  0
LINE
  5
B7
330
1F
100
AcDbEntity
  8
0
  6
Continuous
 62
     7
370
    15
100
AcDbLine
 10
407.0249743959
 20
214.6378625738
 30
0.0
 11
409.2249818346
 21
214.6378625738
 31
0.0
  0
LINE
  5
B8
330
1F
100
AcDbEntity
  8
0
  6
Continuous
 62
     7
370
    15
100
AcDbLine
 10
409.2249818346
 20
197.937863003
 30
0.0
 11
410.3283681175
 21
197.937863003
 31
0.0
  0
LINE
  5
B9
330
1F
100
AcDbEntity
  8
0
  6
Continuous
 62
     7
370
    15
100
AcDbLine
 10
407.1249760887
 20
197.937863003
 30
0.0
 11
409.2249818346
 21
197.937863003
 31
0.0
  0
LINE
  5
BA
330
1F
100
AcDbEntity
  8
0
  6
Continuous
 62
     7
370
    15
100
AcDbLine
 10
409.2249818346
 20
197.5378627512
 30
0.0
 11
410.0884892246
 21
197.5378627512
 31
0.0
  0
LINE
  5
BB
330
1F
100
AcDbEntity
  8
0
  6
Continuous
 62
     7
370
    15
100
AcDbLine
 10
407.1249760887
 20
197.5378627512
 30
0.0
 11
409.2249818346
 21
197.5378627512
 31
0.0
  0
ARC
  5
BC
330
1F
100
AcDbEntity
  8
0
  6
Continuous
 62
     7
370
    15
100
AcDbCircle
 10
406.0907669716
 20
213.5400990665
 30
0.0
 40
0.8027495456831002
100
AcDbArc
 50
125.4673437335
 51
180.1596281405
  0
ARC
  5
BD
330
1F
100
AcDbEntity
  8
0
  6
Continuous
 62
     7
370
    15
100
AcDbCircle
 10
406.0907669716
 20
199.1356263404
 30
0.0
 40
0.8027495456831002
100
AcDbArc
 50
179.8403718595
 51
234.5326562665
  0
LINE
  5
BE
330
1F
100
AcDbEntity
  8
0
  6
Continuous
 62
     7
370
    15
100
AcDbLine
 10
406.075874736
 20
199.5878625284
 30
0.0
 11
406.075874736
 21
199.1378628271
 31
0.0
  0
LINE
  5
BF
330
1F
100
AcDbEntity
  8
0
  6
Continuous
 62
     7
370
    15
100
AcDbLine
 10
406.075874736
 20
213.5378625798
 30
0.0
 11
406.075874736
 21
213.0878628786
 31
0.0
  0
LINE
  5
C0
330
1F
100
AcDbEntity
  8
0
  6
Continuous
 62
     7
370
    15
100
AcDbLine
 10
405.2880205414
 20
199.1378628271
 30
0.0
 11
405.2880205414
 21
200.3663047771
 31
0.0
  0
LINE
  5
C1
330
1F
100
AcDbEntity
  8
0
  6
Continuous
 62
     7
370
    15
100
AcDbLine
 10
405.2880205414
 20
212.3094206299
 30
0.0
 11
405.2880205414
 21
213.5378625798
 31
0.0
  0
SPLINE
  5
C2
330
1F
100
AcDbEntity
  8
0
  6
Continuous
 62
     7
370
    15
100
AcDbSpline
210
0.0
220
0.0
230
1.0
 70
    24
 71
     3
 72
    12
 73
     8
 74
     0
 42
0.00000001
 43
0.00000001
 40
0.0
 40
0.0
 40
0.0
 40
0.0
 40
0.2185051145832685
 40
0.4370116439504236
 40
0.6555200999493015
 40
0.8740268718084363
 40
1.0
 40
1.0
 40
1.0
 40
1.0
 10
412.2843243381477
 20
213.0302577833484
 30
0.0
 10
412.0876042497056
 20
213.0302577833484
 30
0.0
 10
411.694162799092
 20
213.0302577833484
 30
0.0
 10
411.1334121100604
 20
213.0302577833484
 30
0.0
 10
410.7157392191774
 20
213.0302577833484
 30
0.0
 10
410.4891758379525
 20
213.0302577833484
 30
0.0
 10
410.5067031407311
 20
213.0302577833484
 30
0.0
 10
410.5131127140022
 20
213.0302577833484
 30
0.0
  0
SPLINE
  5
C3
330
1F
100
AcDbEntity
  8
0
  6
Continuous
 62
     7
370
    15
100
AcDbSpline
210
0.0
220
0.0
230
1.0
 70
    24
 71
     3
 72
     9
 73
     5
 74
     0
 42
0.00000001
 43
0.00000001
 40
0.0
 40
0.0
 40
0.0
 40
0.0
 40
0.0025230808663563
 40
1.0
 40
1.0
 40
1.0
 40
1.0
 10
412.8249831697441
 20
213.0302577833484
 30
0.0
 10
412.824635611328
 20
213.0302577833484
 30
0.0
 10
412.6868840153641
 20
213.0302577833484
 30
0.0
 10
412.4853499333628
 20
213.0302577833484
 30
0.0
 10
412.2843243381477
 20
213.0302577833484
 30
0.0
  0
SPLINE
  5
C4
330
1F
100
AcDbEntity
  8
0
  6
Continuous
 62
     7
370
    15
100
AcDbSpline
210
0.0
220
0.0
230
1.0
 70
     8
 71
     3
 72
    13
 73
     9
 74
     0
 42
0.00000001
 43
0.00000001
 40
0.0
 40
0.0
 40
0.0
 40
0.0
 40
0.1877344190872338
 40
0.3754728485412139
 40
0.5632112624932787
 40
0.7509477462650653
 40
0.9386852589542094
 40
1.0
 40
1.0
 40
1.0
 40
1.0
 10
411.9910396835304
 20
216.64509648409
 30
0.0
 10
411.7943480958839
 20
216.6423962013572
 30
0.0
 10
411.4009607188817
 20
216.6369955782084
 30
0.0
 10
410.8679427193561
 20
216.3464633772238
 30
0.0
 10
410.4774157274167
 20
215.8915608173178
 30
0.0
 10
410.3044745732352
 20
215.329877069328
 30
0.0
 10
410.3077437979732
 20
214.8566837201309
 30
0.0
 10
410.4350785448966
 20
214.635250416079
 30
0.0
 10
410.4664273759819
 20
214.5807352471005
 30
0.0
  0
SPLINE
  5
C5
330
1F
100
AcDbEntity
  8
0
  6
Continuous
 62
     7
370
    15
100
AcDbSpline
210
0.0
220
0.0
230
1.0
 70
     8
 71
     3
 72
    10
 73
     6
 74
     0
 42
0.00000001
 43
0.00000001
 40
0.0
 40
0.0
 40
0.0
 40
0.0
 40
0.2093438294506487
 40
0.604669948165697
 40
1.0
 40
1.0
 40
1.0
 40
1.0
 10
413.1282218000388
 20
215.8389818477284
 30
0.0
 10
413.0865138953227
 20
215.9320452188932
 30
0.0
 10
412.9660445380505
 20
216.2008500074845
 30
0.0
 10
412.5593464660926
 20
216.5175149100616
 30
0.0
 10
412.1804759059484
 20
216.6025691517131
 30
0.0
 10
411.9910396835304
 20
216.64509648409
 30
0.0
  0
SPLINE
  5
C6
330
1F
100
AcDbEntity
  8
0
  6
Continuous
 62
     7
370
    15
100
AcDbSpline
210
0.0
220
0.0
230
1.0
 70
     8
 71
     3
 72
    13
 73
     9
 74
     0
 42
0.00000001
 43
0.00000001
 40
0.0
 40
0.0
 40
0.0
 40
0.0
 40
0.1768614626580366
 40
0.3537266438978727
 40
0.530591680287995
 40
0.7074549205632471
 40
0.884319107889526
 40
1.0
 40
1.0
 40
1.0
 40
1.0
 10
411.9738139411903
 20
196.0019097286116
 30
0.0
 10
411.777146863365
 20
196.0046004655113
 30
0.0
 10
411.3838085727116
 20
196.0099819958845
 30
0.0
 10
410.8504231569965
 20
196.3006572041212
 30
0.0
 10
410.4612924975594
 20
196.7550214966225
 30
0.0
 10
410.2831326569078
 20
197.3187159581217
 30
0.0
 10
410.3040944146447
 20
197.8518669526895
 30
0.0
 10
410.4701883720365
 20
198.1251367535063
 30
0.0
 10
410.5358667871452
 20
198.2331956359397
 30
0.0
  0
SPLINE
  5
C7
330
1F
100
AcDbEntity
  8
0
  6
Continuous
 62
     7
370
    15
100
AcDbSpline
210
0.0
220
0.0
230
1.0
 70
     8
 71
     3
 72
    10
 73
     6
 74
     0
 42
0.00000001
 43
0.00000001
 40
0.0
 40
0.0
 40
0.0
 40
0.0
 40
0.0588212342684354
 40
0.5294130460425892
 40
1.0
 40
1.0
 40
1.0
 40
1.0
 10
413.003931214521
 20
196.601819302405
 30
0.0
 10
412.9932966822161
 20
196.580338964328
 30
0.0
 10
412.8975819252786
 20
196.3870079104526
 30
0.0
 10
412.536695249747
 20
196.132840122594
 30
0.0
 10
412.1614403984269
 20
196.0455530430974
 30
0.0
 10
411.9738139411903
 20
196.0019097286116
 30
0.0
  0
SPLINE
  5
C8
330
1F
100
AcDbEntity
  8
0
  6
Continuous
 62
     7
370
    15
100
AcDbSpline
210
0.0
220
0.0
230
1.0
 70
    24
 71
     3
 72
    12
 73
     8
 74
     0
 42
0.00000001
 43
0.00000001
 40
0.0
 40
0.0
 40
0.0
 40
0.0
 40
0.2193538622243088
 40
0.4387091447280026
 40
0.6580663613471072
 40
0.8774218872847014
 40
1.0
 40
1.0
 40
1.0
 40
1.0
 10
412.2843243381477
 20
199.4716269518088
 30
0.0
 10
412.0876089302895
 20
199.4716269518088
 30
0.0
 10
411.694176840874
 20
199.4716269518088
 30
0.0
 10
411.1333559423011
 20
199.4716269518088
 30
0.0
 10
410.7159498496175
 20
199.4716269518088
 30
0.0
 10
410.4900932350589
 20
199.4716269518088
 30
0.0
 10
410.5070820733494
 20
199.4716269518088
 30
0.0
 10
410.513172318647
 20
199.4716269518088
 30
0.0
  0
SPLINE
  5
C9
330
1F
100
AcDbEntity
  8
0
  6
Continuous
 62
     7
370
    15
100
AcDbSpline
210
0.0
220
0.0
230
1.0
 70
    24
 71
     3
 72
     9
 73
     5
 74
     0
 42
0.00000001
 43
0.00000001
 40
0.0
 40
0.0
 40
0.0
 40
0.0
 40
0.1970130322720919
 40
1.0
 40
1.0
 40
1.0
 40
1.0
 10
412.924984862516
 20
199.4716269518088
 30
0.0
 10
412.8923326665914
 20
199.4716269518088
 30
0.0
 10
412.7265964432158
 20
199.4716269518088
 30
0.0
 10
412.4812967749517
 20
199.4716269518088
 30
0.0
 10
412.2843243381477
 20
199.4716269518088
 30
0.0
  0
SPLINE
  5
CA
330
1F
100
AcDbEntity
  8
0
  6
Continuous
 62
     7
370
    15
100
AcDbSpline
210
0.0
220
0.0
230
1.0
 70
     8
 71
     3
 72
    13
 73
     9
 74
     0
 42
0.00000001
 43
0.00000001
 40
0.0
 40
0.0
 40
0.0
 40
0.0
 40
0.1768615033144454
 40
0.3537265688979725
 40
0.5305918600777433
 40
0.7074548533138182
 40
0.8843190812971323
 40
1.0
 40
1.0
 40
1.0
 40
1.0
 10
410.4219623109794
 20
219.2615150096666
 30
0.0
 10
410.2252952967046
 20
219.2588241992371
 30
0.0
 10
409.8319573069718
 20
219.2534425241811
 30
0.0
 10
409.2985708548275
 20
218.962768512128
 30
0.0
 10
408.9094414616009
 20
218.5084038307124
 30
0.0
 10
408.7312808312315
 20
217.9447081931523
 30
0.0
 10
408.7522428161219
 20
217.4115578251759
 30
0.0
 10
408.9183367508052
 20
217.1382879959899
 30
0.0
 10
408.9840151569343
 20
217.0302291023384
 30
0.0
  0
SPLINE
  5
CB
330
1F
100
AcDbEntity
  8
0
  6
Continuous
 62
     7
370
    15
100
AcDbSpline
210
0.0
220
0.0
230
1.0
 70
     8
 71
     3
 72
    10
 73
     6
 74
     0
 42
0.00000001
 43
0.00000001
 40
0.0
 40
0.0
 40
0.0
 40
0.0
 40
0.1474573734895173
 40
0.573730886909061
 40
1.0
 40
1.0
 40
1.0
 40
1.0
 10
411.5105517408347
 20
218.5489889788281
 30
0.0
 10
411.4824951939715
 20
218.6092833347249
 30
0.0
 10
411.3733320701853
 20
218.8438781431479
 30
0.0
 10
410.9882521383676
 20
219.1326856026106
 30
0.0
 10
410.6107249372503
 20
219.2185720217465
 30
0.0
 10
410.4219623109794
 20
219.2615150096666
 30
0.0
  0
SPLINE
  5
CC
330
1F
100
AcDbEntity
  8
0
  6
Continuous
 62
     7
370
    15
100
AcDbSpline
210
0.0
220
0.0
230
1.0
 70
     8
 71
     3
 72
    13
 73
     9
 74
     0
 42
0.00000001
 43
0.00000001
 40
0.0
 40
0.0
 40
0.0
 40
0.0
 40
0.1768653836687103
 40
0.3537300190614872
 40
0.5305916012776648
 40
0.7074553904964731
 40
0.8843190319787603
 40
1.0
 40
1.0
 40
1.0
 40
1.0
 10
410.4047514698005
 20
193.385491203035
 30
0.0
 10
410.2080796898438
 20
193.3881815092752
 30
0.0
 10
409.8147369620026
 20
193.3935621103735
 30
0.0
 10
409.2813438607274
 20
193.6842337224196
 30
0.0
 10
408.8922363104058
 20
194.1386108430102
 30
0.0
 10
408.7140493938148
 20
194.7022941302647
 30
0.0
 10
408.7350182881589
 20
195.2354497139457
 30
0.0
 10
408.9011112460973
 20
195.5087184173776
 30
0.0
 10
408.9667894145942
 20
195.6167771103631
 30
0.0
  0
SPLINE
  5
CD
330
1F
100
AcDbEntity
  8
0
  6
Continuous
 62
     7
370
    15
100
AcDbSpline
210
0.0
220
0.0
230
1.0
 70
     8
 71
     3
 72
    10
 73
     6
 74
     0
 42
0.00000001
 43
0.00000001
 40
0.0
 40
0.0
 40
0.0
 40
0.0
 40
0.147459893261942
 40
0.5737376743044033
 40
1.0
 40
1.0
 40
1.0
 40
1.0
 10
411.4933259984947
 20
194.0980172338735
 30
0.0
 10
411.4652695116976
 20
194.0377229090724
 30
0.0
 10
411.3561071955719
 20
193.8031294550835
 30
0.0
 10
410.9710305209108
 20
193.5143240487876
 30
0.0
 10
410.5935088721927
 20
193.4284349659366
 30
0.0
 10
410.4047514698005
 20
193.385491203035
 30
0.0
  0
LINE
  5
CE
330
1F
100
AcDbEntity
  8
0
  6
Continuous
 62
     7
370
    15
100
AcDbLine
 10
715.0263436338
 20
111.3378638956
 30
0.0
 11
715.0263436338
 21
76.3378674718
 31
0.0
  0
LINE
  5
CF
330
1F
100
AcDbEntity
  8
0
  6
Continuous
 62
     7
370
    15
100
AcDbLine
 10
725.6249882481
 20
76.3378674718
 30
0.0
 11
715.0263436338
 21
76.3378674718
 31
0.0
  0
LINE
  5
D0
330
1F
100
AcDbEntity
  8
0
  6
Continuous
 62
     7
370
    15
100
AcDbLine
 10
725.6249882481
 20
111.3378638956
 30
0.0
 11
715.0263436338
 21
111.3378638956
 31
0.0
  0
LINE
  5
D1
330
1F
100
AcDbEntity
  8
0
  6
Continuous
 62
     7
370
    15
100
AcDbLine
 10
715.0263436338
 20
336.3378579351
 30
0.0
 11
715.0263436338
 21
301.3378615114
 31
0.0
  0
LINE
  5
D2
330
1F
100
AcDbEntity
  8
0
  6
Continuous
 62
     7
370
    15
100
AcDbLine
 10
725.6249882481
 20
336.3378579351
 30
0.0
 11
715.0263436338
 21
336.3378579351
 31
0.0
  0
LINE
  5
D3
330
1F
100
AcDbEntity
  8
0
  6
Continuous
 62
     7
370
    15
100
AcDbLine
 10
725.6249882481
 20
301.3378615114
 30
0.0
 11
715.0263436338
 21
301.3378615114
 31
0.0
  0
LINE
  5
D4
330
1F
100
AcDbEntity
  8
0
  6
Continuous
 62
     7
370
    15
100
AcDbLine
 10
722.6249821684
 20
148.3378643724
 30
0.0
 11
717.6249869368
 21
148.3378643724
 31
0.0
  0
LINE
  5
D5
330
1F
100
AcDbEntity
  8
0
  6
Continuous
 62
     7
370
    15
100
AcDbLine
 10
717.6249869368
 20
264.3378610345
 30
0.0
 11
722.6249821684
 21
264.3378610345
 31
0.0
  0
LINE
  5
D6
330
1F
100
AcDbEntity
  8
0
  6
Continuous
 62
     7
370
    15
100
AcDbLine
 10
714.5628281137
 20
76.3378674718
 30
0.0
 11
714.5628281137
 21
111.3378638956
 31
0.0
  0
LINE
  5
D7
330
1F
100
AcDbEntity
  8
0
  6
Continuous
 62
     7
370
    15
100
AcDbLine
 10
715.0263436338
 20
76.3378674718
 30
0.0
 11
714.5628281137
 21
76.3378674718
 31
0.0
  0
LINE
  5
D8
330
1F
100
AcDbEntity
  8
0
  6
Continuous
 62
     7
370
    15
100
AcDbLine
 10
714.5628281137
 20
111.3378638956
 30
0.0
 11
715.0263436338
 21
111.3378638956
 31
0.0
  0
LINE
  5
D9
330
1F
100
AcDbEntity
  8
0
  6
Continuous
 62
     7
370
    15
100
AcDbLine
 10
714.5628281137
 20
301.3378615114
 30
0.0
 11
714.5628281137
 21
336.3378579351
 31
0.0
  0
LINE
  5
DA
330
1F
100
AcDbEntity
  8
0
  6
Continuous
 62
     7
370
    15
100
AcDbLine
 10
714.5628281137
 20
336.3378579351
 30
0.0
 11
715.0263436338
 21
336.3378579351
 31
0.0
  0
LINE
  5
DB
330
1F
100
AcDbEntity
  8
0
  6
Continuous
 62
     7
370
    15
100
AcDbLine
 10
715.0263436338
 20
301.3378615114
 30
0.0
 11
714.5628281137
 21
301.3378615114
 31
0.0
  0
LINE
  5
DC
330
1F
100
AcDbEntity
  8
0
  6
Continuous
 62
     7
370
    15
100
AcDbLine
 10
714.5628281137
 20
336.3378579351
 30
0.0
 11
714.1249872944
 21
336.3378579351
 31
0.0
  0
LINE
  5
DD
330
1F
100
AcDbEntity
  8
0
  6
Continuous
 62
     7
370
    15
100
AcDbLine
 10
714.5628281137
 20
301.3378615114
 30
0.0
 11
714.1249872944
 21
301.3378615114
 31
0.0
  0
LINE
  5
DE
330
1F
100
AcDbEntity
  8
0
  6
Continuous
 62
     7
370
    15
100
AcDbLine
 10
714.5628281137
 20
76.3378674718
 30
0.0
 11
714.1249872944
 21
76.3378674718
 31
0.0
  0
LINE
  5
DF
330
1F
100
AcDbEntity
  8
0
  6
Continuous
 62
     7
370
    15
100
AcDbLine
 10
714.5628281137
 20
111.3378638956
 30
0.0
 11
714.1249872944
 21
111.3378638956
 31
0.0
  0
LINE
  5
E0
330
1F
100
AcDbEntity
  8
0
  6
Continuous
 62
     7
370
    15
100
AcDbLine
 10
408.9249767563
 20
213.0878628786
 30
0.0
 11
405.824983885
 21
213.0878628786
 31
0.0
  0
LINE
  5
E1
330
1F
100
AcDbEntity
  8
0
  6
Continuous
 62
     7
370
    15
100
AcDbLine
 10
408.9249767563
 20
199.5878625284
 30
0.0
 11
405.824983885
 21
199.5878625284
 31
0.0
  0
LINE
  5
E2
330
1F
100
AcDbEntity
  8
0
  6
Continuous
 62
     7
370
    15
100
AcDbLine
 10
408.9249767563
 20
213.0878628786
 30
0.0
 11
410.4850538275
 21
213.0878628786
 31
0.0
  0
LINE
  5
E3
330
1F
100
AcDbEntity
  8
0
  6
Continuous
 62
     7
370
    15
100
AcDbLine
 10
408.9249767563
 20
199.5878625284
 30
0.0
 11
410.4844875833
 21
199.5878625284
 31
0.0
  0
LINE
  5
E4
330
1F
100
AcDbEntity
  8
0
  6
Continuous
 62
     8
370
    15
100
AcDbLine
 10
408.9249767563
 20
213.0878628786
 30
0.0
 11
408.9249767563
 21
212.8378628376
 31
0.0
  0
LINE
  5
E5
330
1F
100
AcDbEntity
  8
0
  6
Continuous
 62
     8
370
    15
100
AcDbLine
 10
408.9249767563
 20
199.8378625694
 30
0.0
 11
408.9249767563
 21
199.5878625284
 31
0.0
  0
LINE
  5
E6
330
1F
100
AcDbEntity
  8
0
  6
Continuous
 62
     7
370
    15
100
AcDbLine
 10
244.8878248024
 20
212.8378628376
 30
0.0
 11
244.8878248024
 21
199.8378625694
 31
0.0
  0
LINE
  5
E7
330
1F
100
AcDbEntity
  8
0
  6
Continuous
 62
     7
370
    15
100
AcDbLine
 10
235.0978289533
 20
213.5378625798
 30
0.0
 11
235.0978289533
 21
214.3378630834
 31
0.0
  0
LINE
  5
E8
330
1F
100
AcDbEntity
  8
0
  6
Continuous
 62
     7
370
    15
100
AcDbLine
 10
235.0978289533
 20
198.3378623235
 30
0.0
 11
235.0978289533
 21
199.1378628271
 31
0.0
  0
LINE
  5
E9
330
1F
100
AcDbEntity
  8
0
  6
Continuous
 62
     7
370
    15
100
AcDbLine
 10
230.1678244758
 20
214.6378625738
 30
0.0
 11
230.1678244758
 21
214.3378630834
 31
0.0
  0
LINE
  5
EA
330
1F
100
AcDbEntity
  8
0
  6
Continuous
 62
     7
370
    15
100
AcDbLine
 10
234.567824452
 20
214.3378630834
 30
0.0
 11
234.567824452
 21
214.6378625738
 31
0.0
  0
ARC
  5
EB
330
1F
100
AcDbEntity
  8
0
  6
Continuous
 62
     7
370
    15
100
AcDbCircle
 10
232.3678273178
 20
211.5307198464
 30
0.0
 40
3.807142857143211
100
AcDbArc
 50
54.6997515601
 51
125.3002484399
  0
LINE
  5
EC
330
1F
100
AcDbEntity
  8
0
  6
Continuous
 62
     7
370
    15
100
AcDbLine
 10
230.2678261686
 20
197.937863003
 30
0.0
 11
230.2678261686
 21
197.5378627512
 31
0.0
  0
LINE
  5
ED
330
1F
100
AcDbEntity
  8
0
  6
Continuous
 62
     7
370
    15
100
AcDbLine
 10
234.4678302098
 20
197.5378627512
 30
0.0
 11
234.4678302098
 21
197.937863003
 31
0.0
  0
ARC
  5
EE
330
1F
100
AcDbEntity
  8
0
  6
Continuous
 62
     7
370
    15
100
AcDbCircle
 10
230.4678273178
 20
198.3378627035
 30
0.0
 40
0.4000000000008015
100
AcDbArc
 50
270.0
 51
0.0
  0
ARC
  5
EF
330
1F
100
AcDbEntity
  8
0
  6
Continuous
 62
     7
370
    15
100
AcDbCircle
 10
234.2678273178
 20
198.3378627035
 30
0.0
 40
0.4000000000007731
100
AcDbArc
 50
180.0
 51
270.0
  0
LINE
  5
F0
330
1F
100
AcDbEntity
  8
0
  6
Continuous
 62
     7
370
    15
100
AcDbLine
 10
230.8678288746
 20
213.5378625798
 30
0.0
 11
230.8678288746
 21
213.0878628786
 31
0.0
  0
LINE
  5
F1
330
1F
100
AcDbEntity
  8
0
  6
Continuous
 62
     7
370
    15
100
AcDbLine
 10
230.8678288746
 20
212.0878627146
 30
0.0
 11
230.8678288746
 21
211.5991581785
 31
0.0
  0
LINE
  5
F2
330
1F
100
AcDbEntity
  8
0
  6
Continuous
 62
     7
370
    15
100
AcDbLine
 10
230.8678288746
 20
210.8030436183
 30
0.0
 11
230.8678288746
 21
210.6473465073
 31
0.0
  0
LINE
  5
F3
330
1F
100
AcDbEntity
  8
0
  6
Continuous
 62
     7
370
    15
100
AcDbLine
 10
230.8678288746
 20
201.3482358861
 30
0.0
 11
230.8678288746
 21
200.5878626923
 31
0.0
  0
LINE
  5
F4
330
1F
100
AcDbEntity
  8
0
  6
Continuous
 62
     7
370
    15
100
AcDbLine
 10
230.8678288746
 20
199.5878625284
 30
0.0
 11
230.8678288746
 21
199.1378628271
 31
0.0
  0
LINE
  5
F5
330
1F
100
AcDbEntity
  8
0
  6
Continuous
 62
     7
370
    15
100
AcDbLine
 10
233.8678275037
 20
199.1378628271
 30
0.0
 11
233.8678275037
 21
199.5878625284
 31
0.0
  0
LINE
  5
F6
330
1F
100
AcDbEntity
  8
0
  6
Continuous
 62
     7
370
    15
100
AcDbLine
 10
233.8678275037
 20
200.5878626923
 30
0.0
 11
233.8678275037
 21
201.0750049348
 31
0.0
  0
LINE
  5
F7
330
1F
100
AcDbEntity
  8
0
  6
Continuous
 62
     7
370
    15
100
AcDbLine
 10
233.8678275037
 20
210.3829221423
 30
0.0
 11
233.8678275037
 21
210.5708607095
 31
0.0
  0
LINE
  5
F8
330
1F
100
AcDbEntity
  8
0
  6
Continuous
 62
     7
370
    15
100
AcDbLine
 10
233.8678275037
 20
211.3259398001
 30
0.0
 11
233.8678275037
 21
212.0878627146
 31
0.0
  0
LINE
  5
F9
330
1F
100
AcDbEntity
  8
0
  6
Continuous
 62
     7
370
    15
100
AcDbLine
 10
233.8678275037
 20
213.0878628786
 30
0.0
 11
233.8678275037
 21
213.5378625798
 31
0.0
  0
SPLINE
  5
FA
330
1F
100
AcDbEntity
  8
0
  6
Continuous
 62
     7
370
    15
100
AcDbSpline
210
0.0
220
0.0
230
1.0
 70
     8
 71
     3
 72
    15
 73
    11
 74
     0
 42
0.00000001
 43
0.00000001
 40
0.0
 40
0.0
 40
0.0
 40
0.0
 40
0.1356028663338301
 40
0.2953315886943306
 40
0.4038095484465317
 40
0.5319635813589845
 40
0.6738457581954921
 40
0.8261073253668793
 40
0.9126171788294358
 40
1.0
 40
1.0
 40
1.0
 40
1.0
 10
233.8678275037302
 20
200.90390793931
 30
0.0
 10
233.9122089770857
 20
200.8965848260769
 30
0.0
 10
234.0088680772143
 20
200.8806357040284
 30
0.0
 10
234.215719206732
 20
200.9283017043041
 30
0.0
 10
234.4089795819577
 20
201.0160326006008
 30
0.0
 10
234.5555680785796
 20
201.13569214325
 30
0.0
 10
234.6542707181065
 20
201.286581743475
 30
0.0
 10
234.6839380839854
 20
201.4084357457438
 30
0.0
 10
234.6627490943579
 20
201.5376783538212
 30
0.0
 10
234.61649595309
 20
201.6043563874912
 30
0.0
 10
234.5932532835497
 20
201.6378627712678
 30
0.0
  0
SPLINE
  5
FB
330
1F
100
AcDbEntity
  8
0
  6
Continuous
 62
     7
370
    15
100
AcDbSpline
210
0.0
220
0.0
230
1.0
 70
     8
 71
     3
 72
    20
 73
    16
 74
     0
 42
0.00000001
 43
0.00000001
 40
0.0
 40
0.0
 40
0.0
 40
0.0
 40
0.0607086214852914
 40
0.2265341895458336
 40
0.390803581223065
 40
0.4705950241619049
 40
0.5476206230061507
 40
0.6228561628181747
 40
0.7003374888932409
 40
0.7786476390016884
 40
0.8566581059630805
 40
0.9331014492745098
 40
0.9703731458204543
 40
0.9892352107449414
 40
1.0
 40
1.0
 40
1.0
 40
1.0
 10
230.1316295552744
 20
201.6378627712678
 30
0.0
 10
230.177904116218
 20
201.5845293737762
 30
0.0
 10
230.3505776163484
 20
201.3855158287328
 30
0.0
 10
230.7675510296648
 20
201.3675890757191
 30
0.0
 10
231.3325054829885
 20
201.2925661129235
 30
0.0
 10
231.8521182002401
 20
201.2496239301629
 30
0.0
 10
232.24600926803
 20
201.2190733686928
 30
0.0
 10
232.6389197064425
 20
201.191389882294
 30
0.0
 10
233.0200817138697
 20
201.1600833779006
 30
0.0
 10
233.3758079564564
 20
201.1276104364446
 30
0.0
 10
233.6784343573206
 20
201.0967844900759
 30
0.0
 10
233.8709465929473
 20
201.0738824400645
 30
0.0
 10
233.9590549253146
 20
201.0658546206371
 30
0.0
 10
234.0044922769048
 20
201.0580601873571
 30
0.0
 10
234.0039357544311
 20
201.062019035749
 30
0.0
 10
234.0037335443987
 20
201.0634574661802
 30
0.0
  0
SPLINE
  5
FC
330
1F
100
AcDbEntity
  8
0
  6
Continuous
 62
     7
370
    15
100
AcDbSpline
210
0.0
220
0.0
230
1.0
 70
     8
 71
     3
 72
    18
 73
    14
 74
     0
 42
0.00000001
 43
0.00000001
 40
0.0
 40
0.0
 40
0.0
 40
0.0
 40
0.0057536129122021
 40
0.1156389023353307
 40
0.2383936358241066
 40
0.3593077623635511
 40
0.4757041881704016
 40
0.5872127586402517
 40
0.7047314396689262
 40
0.8265009696926193
 40
0.8891454136453518
 40
0.9517929294910257
 40
1.0
 40
1.0
 40
1.0
 40
1.0
 10
234.3744446325792
 20
210.2846867027532
 30
0.0
 10
234.369797473316
 20
210.2876401796448
 30
0.0
 10
234.2763966129571
 20
210.3470005904048
 30
0.0
 10
234.0540253402938
 20
210.353183080793
 30
0.0
 10
233.6626580180774
 20
210.4123803459195
 30
0.0
 10
233.1507665377613
 20
210.4579270263014
 30
0.0
 10
232.5997419003336
 20
210.5040786557098
 30
0.0
 10
232.0376253961752
 20
210.5429748091386
 30
0.0
 10
231.503345891909
 20
210.5877048884938
 30
0.0
 10
231.105711167569
 20
210.6287753023442
 30
0.0
 10
230.890982455655
 20
210.6498966656929
 30
0.0
 10
230.7949153614574
 20
210.6521857017688
 30
0.0
 10
230.7794794813138
 20
210.6361106000916
 30
0.0
 10
230.7727669168009
 20
210.6291200588297
 30
0.0
  0
SPLINE
  5
FD
330
1F
100
AcDbEntity
  8
0
  6
Continuous
 62
     7
370
    15
100
AcDbSpline
210
0.0
220
0.0
230
1.0
 70
     8
 71
     3
 72
    12
 73
     8
 74
     0
 42
0.00000001
 43
0.00000001
 40
0.0
 40
0.0
 40
0.0
 40
0.0
 40
0.2236729820054967
 40
0.4523097742282867
 40
0.6822372678484837
 40
0.9102273613192214
 40
1.0
 40
1.0
 40
1.0
 40
1.0
 10
230.0735299277796
 20
211.4397134254526
 30
0.0
 10
230.0607945087572
 20
211.3971654978035
 30
0.0
 10
230.0350410429113
 20
211.3111254075956
 30
0.0
 10
230.1561640478967
 20
211.2195103557118
 30
0.0
 10
230.38784535056
 20
211.1232049927122
 30
0.0
 10
230.6327017905768
 20
211.0607139343711
 30
0.0
 10
230.8160346494676
 20
211.0659340773027
 30
0.0
 10
230.867828874637
 20
211.0674088443469
 30
0.0
  0
SPLINE
  5
FE
330
1F
100
AcDbEntity
  8
0
  6
Continuous
 62
     7
370
    15
100
AcDbSpline
210
0.0
220
0.0
230
1.0
 70
     8
 71
     3
 72
    19
 73
    15
 74
     0
 42
0.00000001
 43
0.00000001
 40
0.0
 40
0.0
 40
0.0
 40
0.0
 40
0.0979033736757284
 40
0.1753767752232956
 40
0.2884822032961697
 40
0.3734525700840743
 40
0.4570022720946865
 40
0.6168867031555729
 40
0.6796659019373148
 40
0.7634255342528317
 40
0.8137555855017751
 40
0.8702971455237448
 40
0.9323987944767276
 40
1.0
 40
1.0
 40
1.0
 40
1.0
 10
230.2497659612192
 20
210.9445827635776
 30
0.0
 10
230.3002730655178
 20
210.9182057690835
 30
0.0
 10
230.3907477115407
 20
210.8709559955489
 30
0.0
 10
230.7653911315174
 20
210.8103073633998
 30
0.0
 10
231.2519035252191
 20
210.7564205827977
 30
0.0
 10
231.843231448108
 20
210.7031870766864
 30
0.0
 10
232.5973339539181
 20
210.6516373636902
 30
0.0
 10
233.2384246759057
 20
210.5846934883253
 30
0.0
 10
233.8877007819798
 20
210.5491737194449
 30
0.0
 10
234.2660311708985
 20
210.6273611439705
 30
0.0
 10
234.5178843720076
 20
210.7355580469271
 30
0.0
 10
234.6514812549287
 20
210.8239004831387
 30
0.0
 10
234.7132382306837
 20
210.8977410811027
 30
0.0
 10
234.6418028688809
 20
210.9782564166389
 30
0.0
 10
234.6045707154764
 20
211.0202210577976
 30
0.0
  0
SPLINE
  5
FF
330
1F
100
AcDbEntity
  8
0
  6
Continuous
 62
     7
370
    15
100
AcDbSpline
210
0.0
220
0.0
230
1.0
 70
     8
 71
     3
 72
    25
 73
    21
 74
     0
 42
0.00000001
 43
0.00000001
 40
0.0
 40
0.0
 40
0.0
 40
0.0
 40
0.017626891199656
 40
0.0344971271163479
 40
0.0503149875215914
 40
0.0649736946624755
 40
0.0909443827718167
 40
0.1134380192291229
 40
0.1538408705044994
 40
0.191234728647758
 40
0.2995718685966565
 40
0.3999645798574709
 40
0.5012967436741349
 40
0.5949071580053961
 40
0.6784893124529331
 40
0.7336313413615942
 40
0.8075206955948011
 40
0.8952856599339531
 40
0.9453107714913105
 40
1.0
 40
1.0
 40
1.0
 40
1.0
 10
234.2472483206285
 20
210.3946391115736
 30
0.0
 10
234.2869593695382
 20
210.3990331112535
 30
0.0
 10
234.364676823322
 20
210.4076324929476
 30
0.0
 10
234.4665513976367
 20
210.4536409738999
 30
0.0
 10
234.5475731111872
 20
210.5125946534527
 30
0.0
 10
234.6237719472319
 20
210.5961697729404
 30
0.0
 10
234.6768254929084
 20
210.6998224838726
 30
0.0
 10
234.7009857139787
 20
210.8321555990212
 30
0.0
 10
234.6780829745666
 20
210.9640150243213
 30
0.0
 10
234.5068665625969
 20
211.2092342066495
 30
0.0
 10
234.1640595880404
 20
211.2963112565392
 30
0.0
 10
233.6689515546981
 20
211.3548676523915
 30
0.0
 10
233.0557370103422
 20
211.4132245398432
 30
0.0
 10
232.4062691992244
 20
211.4628471886599
 30
0.0
 10
231.8665588818778
 20
211.5023280315953
 30
0.0
 10
231.4205669363849
 20
211.5415043320857
 30
0.0
 10
231.0318474781431
 20
211.5797332358558
 30
0.0
 10
230.7716876256994
 20
211.6075748262431
 30
0.0
 10
230.6412628501144
 20
211.6300686530147
 30
0.0
 10
230.632595758677
 20
211.6425319816309
 30
0.0
 10
230.628069191028
 20
211.6490412126135
 30
0.0
  0
SPLINE
  5
100
330
1F
100
AcDbEntity
  8
0
  6
Continuous
 62
     7
370
    15
100
AcDbSpline
210
0.0
220
0.0
230
1.0
 70
     8
 71
     3
 72
    12
 73
     8
 74
     0
 42
0.00000001
 43
0.00000001
 40
0.0
 40
0.0
 40
0.0
 40
0.0
 40
0.175647670400461
 40
0.5723083889404248
 40
0.758616423787197
 40
0.9207513991597377
 40
1.0
 40
1.0
 40
1.0
 40
1.0
 10
230.7163958240045
 20
210.8305534901868
 30
0.0
 10
230.6508321809388
 20
210.8213824620024
 30
0.0
 10
230.4372078109117
 20
210.7915007314154
 30
0.0
 10
230.22129076067
 20
210.7175597344433
 30
0.0
 10
230.0601394812764
 20
210.5026372916431
 30
0.0
 10
230.0289258333347
 20
210.3424154074794
 30
0.0
 10
230.0599028118397
 20
210.2637522734244
 30
0.0
 10
230.0700728583826
 20
210.2379263932656
 30
0.0
  0
LINE
  5
101
330
1F
100
AcDbEntity
  8
0
  6
Continuous
 62
     7
370
    15
100
AcDbLine
 10
230.2275855828
 20
201.5401223297
 30
0.0
 11
229.1091267753
 21
201.5401223297
 31
0.0
  0
LINE
  5
102
330
1F
100
AcDbEntity
  8
0
  6
Continuous
 62
     7
370
    15
100
AcDbLine
 10
229.1091267753
 20
200.7401227574
 30
0.0
 11
230.8678288746
 21
200.7401227574
 31
0.0
  0
LINE
  5
103
330
1F
100
AcDbEntity
  8
0
  6
Continuous
 62
     7
370
    15
100
AcDbLine
 10
227.6988361764
 20
214.3378630834
 30
0.0
 11
227.6988361764
 21
214.3913331064
 31
0.0
  0
LINE
  5
104
330
1F
100
AcDbEntity
  8
0
  6
Continuous
 62
     7
370
    15
100
AcDbLine
 10
224.6988375474
 20
214.3913331064
 30
0.0
 11
224.6988375474
 21
214.3378630834
 31
0.0
  0
SPLINE
  5
105
330
1F
100
AcDbEntity
  8
0
  6
Continuous
 62
     7
370
    15
100
AcDbSpline
210
0.0
220
0.0
230
1.0
 70
     8
 71
     3
 72
    15
 73
    11
 74
     0
 42
0.00000001
 43
0.00000001
 40
0.0
 40
0.0
 40
0.0
 40
0.0
 40
0.1077552675361844
 40
0.2352510372338785
 40
0.3627912513738016
 40
0.4902571009683765
 40
0.617663018955488
 40
0.7450977887964529
 40
0.8724973178809208
 40
1.0
 40
1.0
 40
1.0
 40
1.0
 10
224.714886097957
 20
198.3378623234879
 30
0.0
 10
224.7314291079953
 20
198.0253416153311
 30
0.0
 10
224.767545767157
 20
197.3430471676257
 30
0.0
 10
225.1037429294806
 20
196.3338929173664
 30
0.0
 10
225.6618308112732
 20
195.3704146450695
 30
0.0
 10
226.416660898687
 20
194.5494956919309
 30
0.0
 10
227.3318164431487
 20
193.9142171369817
 30
0.0
 10
228.3590751374771
 20
193.4940613112088
 30
0.0
 10
229.455054328876
 20
193.280253082713
 30
0.0
 10
230.1908111257816
 20
193.3457836300582
 30
0.0
 10
230.5588383961214
 20
193.3785621630799
 30
0.0
  0
SPLINE
  5
106
330
1F
100
AcDbEntity
  8
0
  6
Continuous
 62
     7
370
    15
100
AcDbSpline
210
0.0
220
0.0
230
1.0
 70
     8
 71
     3
 72
    15
 73
    11
 74
     0
 42
0.00000001
 43
0.00000001
 40
0.0
 40
0.0
 40
0.0
 40
0.0
 40
0.1316497309041642
 40
0.2633111631157699
 40
0.3951882693829391
 40
0.5266681356379989
 40
0.657545980020369
 40
0.7882122681223777
 40
0.918459392610764
 40
0.9999999999999999
 40
0.9999999999999999
 40
0.9999999999999999
 40
0.9999999999999999
 10
230.0611470628275
 20
196.336247082318
 30
0.0
 10
229.908965589913
 20
196.3244329097014
 30
0.0
 10
229.6045891178719
 20
196.3008035143995
 30
0.0
 10
229.1537336262769
 20
196.4022832333596
 30
0.0
 10
228.7347034440034
 20
196.5891338175659
 30
0.0
 10
228.3643103646503
 20
196.8617308676287
 30
0.0
 10
228.0620489850267
 20
197.2076412351412
 30
0.0
 10
227.8428916698429
 20
197.6093495304385
 30
0.0
 10
227.7255187561962
 20
197.9956618450547
 30
0.0
 10
227.7153447586631
 20
198.2427360396448
 30
0.0
 10
227.7114276576532
 20
198.3378623234879
 30
0.0
  0
SPLINE
  5
107
330
1F
100
AcDbEntity
  8
0
  6
Continuous
 62
     7
370
    15
100
AcDbSpline
210
0.0
220
0.0
230
1.0
 70
     8
 71
     3
 72
    15
 73
    11
 74
     0
 42
0.00000001
 43
0.00000001
 40
0.0
 40
0.0
 40
0.0
 40
0.0
 40
0.1249271199019881
 40
0.2499164786626197
 40
0.3749670180552142
 40
0.4999570436912684
 40
0.624920505096255
 40
0.7499166867458813
 40
0.8748739282905801
 40
1.0
 40
1.0
 40
1.0
 40
1.0
 10
230.7297174621118
 20
219.2683835136544
 30
0.0
 10
230.3633408027069
 20
219.3117153702247
 30
0.0
 10
229.6304049545542
 20
219.3984006713544
 30
0.0
 10
228.5263788769676
 20
219.2332109297078
 30
0.0
 10
227.4855795848434
 20
218.8442801301635
 30
0.0
 10
226.5503906080266
 20
218.2392656337277
 30
0.0
 10
225.7697470992922
 20
217.4430717867844
 30
0.0
 10
225.1817847722353
 20
216.4987085213639
 30
0.0
 10
224.785948441948
 20
215.450265975294
 30
0.0
 10
224.727887577763
 20
214.711143778739
 30
0.0
 10
224.6988375473512
 20
214.3413331913601
 30
0.0
  0
SPLINE
  5
108
330
1F
100
AcDbEntity
  8
0
  6
Continuous
 62
     7
370
    15
100
AcDbSpline
210
0.0
220
0.0
230
1.0
 70
     8
 71
     3
 72
    15
 73
    11
 74
     0
 42
0.00000001
 43
0.00000001
 40
0.0
 40
0.0
 40
0.0
 40
0.0
 40
0.1242527101213646
 40
0.2486335825946776
 40
0.3735414236081396
 40
0.498583312213038
 40
0.6236637605150498
 40
0.7490698541557573
 40
0.8744383731249473
 40
1.0
 40
1.0
 40
1.0
 40
1.0
 10
227.6988361764444
 20
214.3413331913601
 30
0.0
 10
227.7123929796457
 20
214.4932896959633
 30
0.0
 10
227.7395205694198
 20
214.7973594430228
 30
0.0
 10
227.9139899616576
 20
215.2246716656494
 30
0.0
 10
228.167320796597
 20
215.6063157104894
 30
0.0
 10
228.4971449726861
 20
215.9262445025346
 30
0.0
 10
228.8880710022951
 20
216.1668207674237
 30
0.0
 10
229.3207691111781
 20
216.3184445138803
 30
0.0
 10
229.7783009517751
 20
216.3719020011378
 30
0.0
 10
230.0802201827068
 20
216.3312119925063
 30
0.0
 10
230.2312959719194
 20
216.3108513313185
 30
0.0
  0
LINE
  5
109
330
1F
100
AcDbEntity
  8
0
  6
Continuous
 62
     7
370
    15
100
AcDbLine
 10
245.6018958974
 20
198.952999487
 30
0.0
 11
230.060930996
 21
196.3365814271
 31
0.0
  0
LINE
  5
10A
330
1F
100
AcDbEntity
  8
0
  6
Continuous
 62
     7
370
    15
100
AcDbLine
 10
230.5589874077
 20
193.3782138484
 30
0.0
 11
246.0999597598
 21
195.994632374
 31
0.0
  0
LINE
  5
10B
330
1F
100
AcDbEntity
  8
0
  6
Continuous
 62
     7
370
    15
100
AcDbLine
 10
230.2315120388
 20
216.3104257169
 30
0.0
 11
245.7724843908
 21
213.6940067257
 31
0.0
  0
LINE
  5
10C
330
1F
100
AcDbEntity
  8
0
  6
Continuous
 62
     7
370
    15
100
AcDbLine
 10
246.2705408025
 20
216.6523738387
 30
0.0
 11
230.7295759011
 21
219.2687923643
 31
0.0
  0
SPLINE
  5
10D
330
1F
100
AcDbEntity
  8
0
  6
Continuous
 62
     7
370
    15
100
AcDbSpline
210
0.0
220
0.0
230
1.0
 70
     8
 71
     3
 72
    12
 73
     8
 74
     0
 42
0.00000001
 43
0.00000001
 40
0.0
 40
0.0
 40
0.0
 40
0.0
 40
0.1526138277410233
 40
0.2973906386375711
 40
0.5623707933915906
 40
0.7966024105034107
 40
0.9999999999999999
 40
0.9999999999999999
 40
0.9999999999999999
 40
0.9999999999999999
 10
246.0996095824732
 20
195.9949415731083
 30
0.0
 10
246.3508291783902
 20
196.0476796614109
 30
0.0
 10
246.840367755424
 20
196.1504476346212
 30
0.0
 10
247.6898900310068
 20
196.5796928684746
 30
0.0
 10
248.5018830548086
 20
197.3240852396793
 30
0.0
 10
249.0663185410122
 20
198.3951288134553
 30
0.0
 10
249.1480082786836
 20
199.1300544500521
 30
0.0
 10
249.1859753418459
 20
199.4716269518088
 30
0.0
  0
SPLINE
  5
10E
330
1F
100
AcDbEntity
  8
0
  6
Continuous
 62
     7
370
    15
100
AcDbSpline
210
0.0
220
0.0
230
1.0
 70
     8
 71
     3
 72
    11
 73
     7
 74
     0
 42
0.00000001
 43
0.00000001
 40
0.0
 40
0.0
 40
0.0
 40
0.0
 40
0.200357051305965
 40
0.4328048089701403
 40
0.6990199465929517
 40
1.0
 40
1.0
 40
1.0
 40
1.0
 10
246.1876605439676
 20
199.4716269518088
 30
0.0
 10
246.1744330926099
 20
199.4152004243593
 30
0.0
 10
246.1458595808682
 20
199.293309668459
 30
0.0
 10
246.0299745951183
 20
199.1276094198272
 30
0.0
 10
245.8452218000636
 20
198.9886999609544
 30
0.0
 10
245.6876007447248
 20
198.9653119793792
 30
0.0
 10
245.6039597082628
 20
198.9529012325059
 30
0.0
  0
SPLINE
  5
10F
330
1F
100
AcDbEntity
  8
0
  6
Continuous
 62
     7
370
    15
100
AcDbSpline
210
0.0
220
0.0
230
1.0
 70
     8
 71
     3
 72
    12
 73
     8
 74
     0
 42
0.00000001
 43
0.00000001
 40
0.0
 40
0.0
 40
0.0
 40
0.0
 40
0.2034065801408748
 40
0.4376406898974082
 40
0.7026158536940192
 40
0.8473899973411095
 40
0.9999999999999999
 40
0.9999999999999999
 40
0.9999999999999999
 40
0.9999999999999999
 10
249.1859753418459
 20
213.0302577833484
 30
0.0
 10
249.1645375904073
 20
213.3732666743495
 30
0.0
 10
249.1184130632514
 20
214.1112695825871
 30
0.0
 10
248.6063071907755
 20
215.2083782964023
 30
0.0
 10
247.8311009320219
 20
215.9911351797575
 30
0.0
 10
247.0032507324265
 20
216.4608631450658
 30
0.0
 10
246.5192618176373
 20
216.587124365448
 30
0.0
 10
246.2708909798158
 20
216.651918421949
 30
0.0
  0
SPLINE
  5
110
330
1F
100
AcDbEntity
  8
0
  6
Continuous
 62
     7
370
    15
100
AcDbSpline
210
0.0
220
0.0
230
1.0
 70
     8
 71
     3
 72
    12
 73
     8
 74
     0
 42
0.00000001
 43
0.00000001
 40
0.0
 40
0.0
 40
0.0
 40
0.0
 40
0.155553607216955
 40
0.3022025601964606
 40
0.5679660049298992
 40
0.7999450310488447
 40
1.0
 40
1.0
 40
1.0
 40
1.0
 10
245.7705621409906
 20
213.6949250097226
 30
0.0
 10
245.8111064759148
 20
213.6791755000247
 30
0.0
 10
245.8898741884402
 20
213.6485780600957
 30
0.0
 10
246.0195037463738
 20
213.5535335520848
 30
0.0
 10
246.1339354376357
 20
213.4073610802799
 30
0.0
 10
246.1980804850253
 20
213.2131074880219
 30
0.0
 10
246.1909584357256
 20
213.0881293711681
 30
0.0
 10
246.1876605439676
 20
213.0302577833484
 30
0.0
  0
LINE
  5
111
330
1F
100
AcDbEntity
  8
0
  6
Continuous
 62
     7
370
    15
100
AcDbLine
 10
246.1868186284
 20
213.0802576984
 30
0.0
 11
246.1868186284
 21
212.8378628376
 31
0.0
  0
LINE
  5
112
330
1F
100
AcDbEntity
  8
0
  6
Continuous
 62
     7
370
    15
100
AcDbLine
 10
246.1868186284
 20
199.8378625694
 30
0.0
 11
246.1868186284
 21
199.4216270367
 31
0.0
  0
LINE
  5
113
330
1F
100
AcDbEntity
  8
0
  6
Continuous
 62
     7
370
    15
100
AcDbLine
 10
249.1868172575
 20
199.4216270367
 30
0.0
 11
249.1868172575
 21
199.840607177
 31
0.0
  0
LINE
  5
114
330
1F
100
AcDbEntity
  8
0
  6
Continuous
 62
     7
370
    15
100
AcDbLine
 10
249.1868172575
 20
212.83511823
 30
0.0
 11
249.1868172575
 21
213.0802576984
 31
0.0
  0
LINE
  5
115
330
1F
100
AcDbEntity
  8
0
  6
Continuous
 62
     7
370
    15
100
AcDbLine
 10
235.48610106
 20
211.9378625038
 30
0.0
 11
233.8678275037
 21
211.9378625038
 31
0.0
  0
LINE
  5
116
330
1F
100
AcDbEntity
  8
0
  6
Continuous
 62
     7
370
    15
100
AcDbLine
 10
234.4947491575
 20
211.1378629315
 30
0.0
 11
235.48610106
 21
211.1378629315
 31
0.0
  0
LINE
  5
117
330
1F
100
AcDbEntity
  8
0
  6
Continuous
 62
     7
370
    15
100
AcDbLine
 10
235.8243276167
 20
213.2060016128
 30
0.0
 11
235.557797997
 21
211.9977544616
 31
0.0
  0
LINE
  5
118
330
1F
100
AcDbEntity
  8
0
  6
Continuous
 62
     7
370
    15
100
AcDbLine
 10
236.3259528566
 20
211.7662043865
 30
0.0
 11
236.6055433441
 21
213.0336738746
 31
0.0
  0
SPLINE
  5
119
330
1F
100
AcDbEntity
  8
0
  6
Continuous
 62
     7
370
    15
100
AcDbSpline
210
0.0
220
0.0
230
1.0
 70
     8
 71
     3
 72
    11
 73
     7
 74
     0
 42
0.00000001
 43
0.00000001
 40
0.0
 40
0.0
 40
0.0
 40
0.0
 40
0.2541309399275824
 40
0.5022690019548702
 40
0.7495126202113759
 40
1.0
 40
1.0
 40
1.0
 40
1.0
 10
235.4861010599626
 20
211.1378629314553
 30
0.0
 10
235.5861898043977
 20
211.1481090429335
 30
0.0
 10
235.7840070154332
 20
211.1683596436181
 30
0.0
 10
236.0421523416313
 20
211.3223921313879
 30
0.0
 10
236.2456013274669
 20
211.5414662640851
 30
0.0
 10
236.3073398088163
 20
211.7285160479452
 30
0.0
 10
236.3384102273477
 20
211.8226504507314
 30
0.0
  0
LINE
  5
11A
330
1F
100
AcDbEntity
  8
0
  6
Continuous
 62
     7
370
    15
100
AcDbLine
 10
249.1374422598
 20
199.8378625694
 30
0.0
 11
248.1854145217
 21
199.8378625694
 31
0.0
  0
LWPOLYLINE
  5
11B
330
1F
100
AcDbEntity
  8
0
  6
Continuous
 62
     7
370
    15
100
AcDbPolyline
 90
        9
 70
   128
 43
0.0
 10
248.1854145217
 20
199.8378625694
 10
248.327936678
 20
199.8609202537
 10
248.4649752069
 20
199.9292071531
 10
248.5912699986
 20
200.0400992664
 10
248.7019707251
 20
200.1893343958
 10
248.7928156543
 20
200.3711783881
 10
248.8603253651
 20
200.5786425988
 10
248.9018921543
 20
200.803754441
 10
248.9159290481
 20
201.0378628592
  0
LINE
  5
11C
330
1F
100
AcDbEntity
  8
0
  6
Continuous
 62
     7
370
    15
100
AcDbLine
 10
248.9159290481
 20
201.0378628592
 30
0.0
 11
249.8679567862
 21
201.0378628592
 31
0.0
  0
LWPOLYLINE
  5
11D
330
1F
100
AcDbEntity
  8
0
  6
Continuous
 62
     7
370
    15
100
AcDbPolyline
 90
        9
 70
   128
 43
0.0
 10
249.8679567862
 20
201.0378628592
 10
249.8539198924
 20
200.803754441
 10
249.8123456526
 20
200.5786425988
 10
249.7448433924
 20
200.3711783881
 10
249.6539910126
 20
200.1893343958
 10
249.5432902861
 20
200.0400992664
 10
249.4169954944
 20
199.9292071531
 10
249.2799569655
 20
199.8609202537
 10
249.1374422598
 20
199.8378625694
  0
LINE
  5
11E
330
1F
100
AcDbEntity
  8
0
  6
Continuous
 62
     7
370
    15
100
AcDbLine
 10
249.8679567862
 20
211.6378625478
 30
0.0
 11
248.9159290481
 21
211.6378625478
 31
0.0
  0
LINE
  5
11F
330
1F
100
AcDbEntity
  8
0
  6
Continuous
 62
     7
370
    15
100
AcDbLine
 10
249.8679567862
 20
211.6378625478
 30
0.0
 11
249.8679567862
 21
201.0378628592
 31
0.0
  0
LINE
  5
120
330
1F
100
AcDbEntity
  8
0
  6
Continuous
 62
     7
370
    15
100
AcDbLine
 10
248.9159290481
 20
211.6378625478
 30
0.0
 11
248.9159290481
 21
201.0378628592
 31
0.0
  0
LINE
  5
121
330
1F
100
AcDbEntity
  8
0
  6
Continuous
 62
     7
370
    15
100
AcDbLine
 10
248.1854145217
 20
212.8378628376
 30
0.0
 11
249.1374422598
 21
212.8378628376
 31
0.0
  0
LWPOLYLINE
  5
122
330
1F
100
AcDbEntity
  8
0
  6
Continuous
 62
     7
370
    15
100
AcDbPolyline
 90
        9
 70
   128
 43
0.0
 10
249.1374422598
 20
212.8378628376
 10
249.2799569655
 20
212.8148051533
 10
249.4169954944
 20
212.7465182538
 10
249.5432902861
 20
212.6356261405
 10
249.6539910126
 20
212.4863910111
 10
249.7448433924
 20
212.3045470188
 10
249.8123456526
 20
212.0970828081
 10
249.8539198924
 20
211.871970966
 10
249.8679567862
 20
211.6378625478
  0
LWPOLYLINE
  5
123
330
1F
100
AcDbEntity
  8
0
  6
Continuous
 62
     7
370
    15
100
AcDbPolyline
 90
        9
 70
   128
 43
0.0
 10
248.9159290481
 20
211.6378625478
 10
248.9018921543
 20
211.871970966
 10
248.8603253651
 20
212.0970828081
 10
248.7928156543
 20
212.3045470188
 10
248.7019707251
 20
212.4863910111
 10
248.5912699986
 20
212.6356261405
 10
248.4649752069
 20
212.7465182538
 10
248.327936678
 20
212.8148051533
 10
248.1854145217
 20
212.8378628376
  0
LINE
  5
124
330
1F
100
AcDbEntity
  8
0
  6
Continuous
 62
     7
370
    15
100
AcDbLine
 10
245.4664368916
 20
212.8378628376
 30
0.0
 11
245.4664368916
 21
199.8378625694
 31
0.0
  0
LINE
  5
125
330
1F
100
AcDbEntity
  8
0
  6
Continuous
 62
     7
370
    15
100
AcDbLine
 10
245.4664368916
 20
212.8378628376
 30
0.0
 11
248.1854145217
 21
212.8378628376
 31
0.0
  0
LINE
  5
126
330
1F
100
AcDbEntity
  8
0
  6
Continuous
 62
     7
370
    15
100
AcDbLine
 10
248.1854145217
 20
199.8378625694
 30
0.0
 11
245.4664368916
 21
199.8378625694
 31
0.0
  0
LINE
  5
127
330
1F
100
AcDbEntity
  8
0
  6
Continuous
 62
     7
370
    15
100
AcDbLine
 10
244.8878248024
 20
212.8378628376
 30
0.0
 11
245.4664368916
 21
212.8378628376
 31
0.0
  0
LINE
  5
128
330
1F
100
AcDbEntity
  8
0
  6
Continuous
 62
     7
370
    15
100
AcDbLine
 10
245.4664368916
 20
199.8378625694
 30
0.0
 11
244.8878248024
 21
199.8378625694
 31
0.0
  0
LINE
  5
129
330
1F
100
AcDbEntity
  8
0
  6
Continuous
 62
     7
370
    15
100
AcDbLine
 10
254.9878244091
 20
199.4378627832
 30
0.0
 11
255.7878305007
 21
199.4378627832
 31
0.0
  0
LINE
  5
12A
330
1F
100
AcDbEntity
  8
0
  6
Continuous
 62
     7
370
    15
100
AcDbLine
 10
255.7878305007
 20
199.4378627832
 30
0.0
 11
255.7878305007
 21
200.9378625634
 31
0.0
  0
LINE
  5
12B
330
1F
100
AcDbEntity
  8
0
  6
Continuous
 62
     7
370
    15
100
AcDbLine
 10
255.7878305007
 20
200.9378625634
 30
0.0
 11
257.2878260899
 21
200.9378625634
 31
0.0
  0
LINE
  5
12C
330
1F
100
AcDbEntity
  8
0
  6
Continuous
 62
     7
370
    15
100
AcDbLine
 10
257.2878260899
 20
200.9378625634
 30
0.0
 11
257.2878260899
 21
201.7378626014
 31
0.0
  0
LINE
  5
12D
330
1F
100
AcDbEntity
  8
0
  6
Continuous
 62
     7
370
    15
100
AcDbLine
 10
257.2878260899
 20
201.7378626014
 30
0.0
 11
255.7878305007
 21
201.7378626014
 31
0.0
  0
LINE
  5
12E
330
1F
100
AcDbEntity
  8
0
  6
Continuous
 62
     7
370
    15
100
AcDbLine
 10
255.7878305007
 20
201.7378626014
 30
0.0
 11
255.7878305007
 21
203.2378626144
 31
0.0
  0
LINE
  5
12F
330
1F
100
AcDbEntity
  8
0
  6
Continuous
 62
     7
370
    15
100
AcDbLine
 10
255.7878305007
 20
203.2378626144
 30
0.0
 11
254.9878244091
 21
203.2378626144
 31
0.0
  0
LINE
  5
130
330
1F
100
AcDbEntity
  8
0
  6
Continuous
 62
     7
370
    15
100
AcDbLine
 10
254.9878244091
 20
203.2378626144
 30
0.0
 11
254.9878244091
 21
201.7378626014
 31
0.0
  0
LINE
  5
131
330
1F
100
AcDbEntity
  8
0
  6
Continuous
 62
     7
370
    15
100
AcDbLine
 10
254.9878244091
 20
201.7378626014
 30
0.0
 11
253.4878288198
 21
201.7378626014
 31
0.0
  0
LINE
  5
132
330
1F
100
AcDbEntity
  8
0
  6
Continuous
 62
     7
370
    15
100
AcDbLine
 10
253.4878288198
 20
201.7378626014
 30
0.0
 11
253.4878288198
 21
200.9378625634
 31
0.0
  0
LINE
  5
133
330
1F
100
AcDbEntity
  8
0
  6
Continuous
 62
     7
370
    15
100
AcDbLine
 10
253.4878288198
 20
200.9378625634
 30
0.0
 11
254.9878244091
 21
200.9378625634
 31
0.0
  0
LINE
  5
134
330
1F
100
AcDbEntity
  8
0
  6
Continuous
 62
     7
370
    15
100
AcDbLine
 10
254.9878244091
 20
200.9378625634
 30
0.0
 11
254.9878244091
 21
199.4378627832
 31
0.0
  0
CIRCLE
  5
135
330
1F
100
AcDbEntity
  8
0
  6
Continuous
 62
     7
370
    15
100
AcDbCircle
 10
255.3878273178
 20
201.3378627035
 30
0.0
 40
3.0
  0
LINE
  5
136
330
1F
100
AcDbEntity
  8
0
  6
Continuous
 62
     7
370
    15
100
AcDbLine
 10
253.4878288198
 20
210.9378628055
 30
0.0
 11
254.9878244091
 21
210.9378628055
 31
0.0
  0
LINE
  5
137
330
1F
100
AcDbEntity
  8
0
  6
Continuous
 62
     7
370
    15
100
AcDbLine
 10
255.7878305007
 20
209.4378627925
 30
0.0
 11
255.7878305007
 21
210.9378628055
 31
0.0
  0
LINE
  5
138
330
1F
100
AcDbEntity
  8
0
  6
Continuous
 62
     7
370
    15
100
AcDbLine
 10
255.7878305007
 20
210.9378628055
 30
0.0
 11
257.2878260899
 21
210.9378628055
 31
0.0
  0
LINE
  5
139
330
1F
100
AcDbEntity
  8
0
  6
Continuous
 62
     7
370
    15
100
AcDbLine
 10
257.2878260899
 20
210.9378628055
 30
0.0
 11
257.2878260899
 21
211.7378628435
 31
0.0
  0
LINE
  5
13A
330
1F
100
AcDbEntity
  8
0
  6
Continuous
 62
     7
370
    15
100
AcDbLine
 10
257.2878260899
 20
211.7378628435
 30
0.0
 11
255.7878305007
 21
211.7378628435
 31
0.0
  0
LINE
  5
13B
330
1F
100
AcDbEntity
  8
0
  6
Continuous
 62
     7
370
    15
100
AcDbLine
 10
255.7878305007
 20
211.7378628435
 30
0.0
 11
255.7878305007
 21
213.2378626237
 31
0.0
  0
LINE
  5
13C
330
1F
100
AcDbEntity
  8
0
  6
Continuous
 62
     7
370
    15
100
AcDbLine
 10
255.7878305007
 20
213.2378626237
 30
0.0
 11
254.9878244091
 21
213.2378626237
 31
0.0
  0
LINE
  5
13D
330
1F
100
AcDbEntity
  8
0
  6
Continuous
 62
     7
370
    15
100
AcDbLine
 10
254.9878244091
 20
211.7378628435
 30
0.0
 11
253.4878288198
 21
211.7378628435
 31
0.0
  0
LINE
  5
13E
330
1F
100
AcDbEntity
  8
0
  6
Continuous
 62
     7
370
    15
100
AcDbLine
 10
253.4878288198
 20
211.7378628435
 30
0.0
 11
253.4878288198
 21
210.9378628055
 31
0.0
  0
LINE
  5
13F
330
1F
100
AcDbEntity
  8
0
  6
Continuous
 62
     7
370
    15
100
AcDbLine
 10
254.9878244091
 20
209.4378627925
 30
0.0
 11
255.7878305007
 21
209.4378627925
 31
0.0
  0
LINE
  5
140
330
1F
100
AcDbEntity
  8
0
  6
Continuous
 62
     7
370
    15
100
AcDbLine
 10
254.9878244091
 20
213.2378626237
 30
0.0
 11
254.9878244091
 21
211.7378628435
 31
0.0
  0
CIRCLE
  5
141
330
1F
100
AcDbEntity
  8
0
  6
Continuous
 62
     7
370
    15
100
AcDbCircle
 10
255.3878273178
 20
211.3378627035
 30
0.0
 40
2.999999999999972
  0
LINE
  5
142
330
1F
100
AcDbEntity
  8
0
  6
Continuous
 62
     7
370
    15
100
AcDbLine
 10
254.9878244091
 20
210.9378628055
 30
0.0
 11
254.9878244091
 21
209.4378627925
 31
0.0
  0
ARC
  5
143
330
1F
100
AcDbEntity
  8
0
  6
Continuous
 62
     7
370
    15
100
AcDbCircle
 10
255.3878273177
 20
196.3378627034
 30
0.0
 40
1.50000000000001
100
AcDbArc
 50
227.2726046868
 51
316.3971810272
  0
ARC
  5
144
330
1F
100
AcDbEntity
  8
0
  6
Continuous
 62
     7
370
    15
100
AcDbCircle
 10
244.8878273178
 20
206.3378627035
 30
0.0
 40
15.99999999999999
100
AcDbArc
 50
316.3971810272
 51
43.6028189726
  0
LINE
  5
145
330
1F
100
AcDbEntity
  8
0
  6
Continuous
 62
     7
370
    15
100
AcDbLine
 10
254.3700595189
 20
195.2359770047
 30
0.0
 11
249.3878264714
 21
199.8378625694
 31
0.0
  0
LINE
  5
146
330
1F
100
AcDbEntity
  8
0
  6
Continuous
 62
     7
370
    15
100
AcDbLine
 10
249.3878264714
 20
212.8378628376
 30
0.0
 11
254.3700595189
 21
217.4397484022
 31
0.0
  0
ARC
  5
147
330
1F
100
AcDbEntity
  8
0
  6
Continuous
 62
     7
370
    15
100
AcDbCircle
 10
255.3878273178
 20
216.3378627034
 30
0.0
 40
1.500000000000013
100
AcDbArc
 50
43.6028189726
 51
132.7273953127
  0
LINE
  5
148
330
1F
100
AcDbEntity
  8
0
  6
Continuous
 62
     7
370
    15
100
AcDbLine
 10
249.1868172575
 20
212.8378628376
 30
0.0
 11
249.3878264714
 21
212.8378628376
 31
0.0
  0
LINE
  5
149
330
1F
100
AcDbEntity
  8
0
  6
Continuous
 62
     7
370
    15
100
AcDbLine
 10
249.3878264714
 20
199.8378625694
 30
0.0
 11
249.1868172575
 21
199.8378625694
 31
0.0
  0
LINE
  5
14A
330
1F
100
AcDbEntity
  8
0
  6
Continuous
 62
     7
370
    15
100
AcDbLine
 10
252.3878251005
 20
341.3378680679
 30
0.0
 11
257.3878277827
 21
341.3378680679
 31
0.0
  0
LINE
  5
14B
330
1F
100
AcDbEntity
  8
0
  6
Continuous
 62
     7
370
    15
100
AcDbLine
 10
252.3878251005
 20
341.3378680679
 30
0.0
 11
252.3878251005
 21
356.3378686639
 31
0.0
  0
LINE
  5
14C
330
1F
100
AcDbEntity
  8
0
  6
Continuous
 62
     7
370
    15
100
AcDbLine
 10
252.3878251005
 20
356.3378686639
 30
0.0
 11
257.3878277827
 21
356.3378686639
 31
0.0
  0
LINE
  5
14D
330
1F
100
AcDbEntity
  8
0
  6
Continuous
 62
     7
370
    15
100
AcDbLine
 10
257.3878277827
 20
341.3378680679
 30
0.0
 11
257.3878277827
 21
356.3378686639
 31
0.0
  0
LINE
  5
14E
330
1F
100
AcDbEntity
  8
0
  6
Continuous
 62
     7
370
    15
100
AcDbLine
 10
257.3878277827
 20
341.3378680679
 30
0.0
 11
272.3878283787
 21
341.3378680679
 31
0.0
  0
ARC
  5
14F
330
1F
100
AcDbEntity
  8
0
  6
Continuous
 62
     7
370
    15
100
AcDbCircle
 10
257.3878273178
 20
341.3378627035
 30
0.0
 40
15.00000000000006
100
AcDbArc
 50
0.0
 51
90.0
  0
LINE
  5
150
330
1F
100
AcDbEntity
  8
0
  6
Continuous
 62
     7
370
    15
100
AcDbLine
 10
257.3878277827
 20
216.3253548178
 30
0.0
 11
257.3878277827
 21
341.3378680679
 31
0.0
  0
LINE
  5
151
330
1F
100
AcDbEntity
  8
0
  6
Continuous
 62
     7
370
    15
100
AcDbLine
 10
252.3878251005
 20
215.6088399323
 30
0.0
 11
252.3878251005
 21
341.3378680679
 31
0.0
  0
LINE
  5
152
330
1F
100
AcDbEntity
  8
0
  6
Continuous
 62
     7
370
    15
100
AcDbLine
 10
257.3878277827
 20
196.3503705892
 30
0.0
 11
257.3878277827
 21
71.337857339
 31
0.0
  0
LINE
  5
153
330
1F
100
AcDbEntity
  8
0
  6
Continuous
 62
     7
370
    15
100
AcDbLine
 10
272.3878283787
 20
71.337857339
 30
0.0
 11
272.3878283787
 21
341.3378680679
 31
0.0
  0
LINE
  5
154
330
1F
100
AcDbEntity
  8
0
  6
Continuous
 62
     7
370
    15
100
AcDbLine
 10
257.3878277827
 20
71.337857339
 30
0.0
 11
272.3878283787
 21
71.337857339
 31
0.0
  0
LINE
  5
155
330
1F
100
AcDbEntity
  8
0
  6
Continuous
 62
     7
370
    15
100
AcDbLine
 10
252.3878251005
 20
71.337857339
 30
0.0
 11
257.3878277827
 21
71.337857339
 31
0.0
  0
LINE
  5
156
330
1F
100
AcDbEntity
  8
0
  6
Continuous
 62
     7
370
    15
100
AcDbLine
 10
252.3878251005
 20
197.0668854746
 30
0.0
 11
252.3878251005
 21
71.337857339
 31
0.0
  0
LINE
  5
157
330
1F
100
AcDbEntity
  8
0
  6
Continuous
 62
     7
370
    15
100
AcDbLine
 10
252.3878251005
 20
56.337856743
 30
0.0
 11
257.3878277827
 21
56.337856743
 31
0.0
  0
LINE
  5
158
330
1F
100
AcDbEntity
  8
0
  6
Continuous
 62
     7
370
    15
100
AcDbLine
 10
257.3878277827
 20
71.337857339
 30
0.0
 11
257.3878277827
 21
56.337856743
 31
0.0
  0
LINE
  5
159
330
1F
100
AcDbEntity
  8
0
  6
Continuous
 62
     7
370
    15
100
AcDbLine
 10
252.3878251005
 20
71.337857339
 30
0.0
 11
252.3878251005
 21
56.337856743
 31
0.0
  0
ARC
  5
15A
330
1F
100
AcDbEntity
  8
0
  6
Continuous
 62
     7
370
    15
100
AcDbCircle
 10
257.3878273178
 20
71.3378627035
 30
0.0
 40
15.0
100
AcDbArc
 50
270.0
 51
0.0
  0
LINE
  5
15B
330
1F
100
AcDbEntity
  8
0
  6
Continuous
 62
     7
370
    15
100
AcDbLine
 10
235.5987538386
 20
201.6378627713
 30
0.0
 11
235.5987538386
 21
210.2378625977
 31
0.0
  0
LINE
  5
15C
330
1F
100
AcDbEntity
  8
0
  6
Continuous
 62
     7
370
    15
100
AcDbLine
 10
230.0844599295
 20
201.6378627713
 30
0.0
 11
230.0844599295
 21
210.2378625977
 31
0.0
  0
LINE
  5
15D
330
1F
100
AcDbEntity
  8
0
  6
Continuous
 62
     7
370
    15
100
AcDbLine
 10
235.5987538386
 20
210.2378625977
 30
0.0
 11
230.0844599295
 21
210.2378625977
 31
0.0
  0
LINE
  5
15E
330
1F
100
AcDbEntity
  8
0
  6
Continuous
 62
     7
370
    15
100
AcDbLine
 10
235.5987538386
 20
201.6378627713
 30
0.0
 11
230.0844599295
 21
201.6378627713
 31
0.0
  0
LINE
  5
15F
330
1F
100
AcDbEntity
  8
0
  6
Continuous
 62
     7
370
    15
100
AcDbLine
 10
228.9702032495
 20
213.5378625798
 30
0.0
 11
204.1580934811
 21
213.5378625798
 31
0.0
  0
LINE
  5
160
330
1F
100
AcDbEntity
  8
0
  6
Continuous
 62
     7
370
    15
100
AcDbLine
 10
228.9702032495
 20
210.2378625977
 30
0.0
 11
228.9702032495
 21
213.5378625798
 31
0.0
  0
LINE
  5
161
330
1F
100
AcDbEntity
  8
0
  6
Continuous
 62
     7
370
    15
100
AcDbLine
 10
228.9702032495
 20
199.1378628271
 30
0.0
 11
228.9702032495
 21
201.6378627713
 31
0.0
  0
LINE
  5
162
330
1F
100
AcDbEntity
  8
0
  6
Continuous
 62
     7
370
    15
100
AcDbLine
 10
204.1580934811
 20
199.1378628271
 30
0.0
 11
228.9702032495
 21
199.1378628271
 31
0.0
  0
LINE
  5
163
330
1F
100
AcDbEntity
  8
0
  6
Continuous
 62
     7
370
    15
100
AcDbLine
 10
204.1580934811
 20
199.1378628271
 30
0.0
 11
204.1580934811
 21
213.5378625798
 31
0.0
  0
LINE
  5
164
330
1F
100
AcDbEntity
  8
0
  6
Continuous
 62
     7
370
    15
100
AcDbLine
 10
228.9702032495
 20
210.2378625977
 30
0.0
 11
230.0844599295
 21
210.2378625977
 31
0.0
  0
LINE
  5
165
330
1F
100
AcDbEntity
  8
0
  6
Continuous
 62
     7
370
    15
100
AcDbLine
 10
228.9702032495
 20
201.6378627713
 30
0.0
 11
230.0844599295
 21
201.6378627713
 31
0.0
  0
LINE
  5
166
330
1F
100
AcDbEntity
  8
0
  6
Continuous
 62
     7
370
    15
100
AcDbLine
 10
229.0978242445
 20
198.3405119362
 30
0.0
 11
230.9900556493
 21
198.3405119362
 31
0.0
  0
LINE
  5
167
330
1F
100
AcDbEntity
  8
0
  6
Continuous
 62
     7
370
    15
100
AcDbLine
 10
230.9900556493
 20
198.3405119362
 30
0.0
 11
231.6628132749
 21
198.3378623235
 31
0.0
  0
LINE
  5
168
330
1F
100
AcDbEntity
  8
0
  6
Continuous
 62
     7
370
    15
100
AcDbLine
 10
231.6628132749
 20
198.3378623235
 30
0.0
 11
204.2970132816
 21
198.3378623235
 31
0.0
  0
ARC
  5
169
330
1F
100
AcDbEntity
  8
0
  6
Continuous
 62
     7
370
    15
100
AcDbCircle
 10
205.4140377125
 20
198.9438951539
 30
0.0
 40
1.270834123965103
100
AcDbArc
 50
171.2206182958
 51
208.4816967507
  0
ARC
  5
16A
330
1F
100
AcDbEntity
  8
0
  6
Continuous
 62
     7
370
    15
100
AcDbCircle
 10
230.444593316
 20
198.9649594605
 30
0.0
 40
1.484493732680789
100
AcDbArc
 50
173.3114100657
 51
204.8754288142
  0
LINE
  5
16B
330
1F
100
AcDbEntity
  8
0
  6
Continuous
 62
     7
370
    15
100
AcDbLine
 10
230.9900556493
 20
214.3352134707
 30
0.0
 11
229.0978242445
 21
214.3352134707
 31
0.0
  0
ARC
  5
16C
330
1F
100
AcDbEntity
  8
0
  6
Continuous
 62
     7
370
    15
100
AcDbCircle
 10
230.444593316
 20
213.7107659465
 30
0.0
 40
1.484493732680783
100
AcDbArc
 50
155.1245711858
 51
186.6885899343
  0
ARC
  5
16D
330
1F
100
AcDbEntity
  8
0
  6
Continuous
 62
     7
370
    15
100
AcDbCircle
 10
205.4140377125
 20
213.7318302531
 30
0.0
 40
1.270834123965093
100
AcDbArc
 50
151.5183032493
 51
188.7793817042
  0
LINE
  5
16E
330
1F
100
AcDbEntity
  8
0
  6
Continuous
 62
     7
370
    15
100
AcDbLine
 10
204.2970132816
 20
214.3378630834
 30
0.0
 11
231.6628132749
 21
214.3378630834
 31
0.0
  0
LINE
  5
16F
330
1F
100
AcDbEntity
  8
0
  6
Continuous
 62
     7
370
    15
100
AcDbLine
 10
231.6628132749
 20
214.3378630834
 30
0.0
 11
230.9900556493
 21
214.3352134707
 31
0.0
  0
LINE
  5
170
330
1F
100
AcDbEntity
  8
0
  6
Continuous
 62
     7
370
    15
100
AcDbLine
 10
229.0978242445
 20
198.3405119362
 30
0.0
 11
229.0978242445
 21
199.1378628271
 31
0.0
  0
LINE
  5
171
330
1F
100
AcDbEntity
  8
0
  6
Continuous
 62
     7
370
    15
100
AcDbLine
 10
229.1091267753
 20
201.6378627713
 30
0.0
 11
229.1091267753
 21
199.1378628271
 31
0.0
  0
LINE
  5
172
330
1F
100
AcDbEntity
  8
0
  6
Continuous
 62
     7
370
    15
100
AcDbLine
 10
229.0978242445
 20
213.5378625798
 30
0.0
 11
229.0978242445
 21
214.3352134707
 31
0.0
  0
LINE
  5
173
330
1F
100
AcDbEntity
  8
0
  6
Continuous
 62
     7
370
    15
100
AcDbLine
 10
229.1091267753
 20
213.5378625798
 30
0.0
 11
229.1091267753
 21
210.2378625977
 31
0.0
  0
LINE
  5
174
330
1F
100
AcDbEntity
  8
0
  6
Continuous
 62
     7
370
    15
100
AcDbLine
 10
230.9900556493
 20
213.5378625798
 30
0.0
 11
230.9900556493
 21
214.3352134707
 31
0.0
  0
LINE
  5
175
330
1F
100
AcDbEntity
  8
0
  6
Continuous
 62
     7
370
    15
100
AcDbLine
 10
235.0978289533
 20
214.3378630834
 30
0.0
 11
231.6628132749
 21
214.3378630834
 31
0.0
  0
LINE
  5
176
330
1F
100
AcDbEntity
  8
0
  6
Continuous
 62
     7
370
    15
100
AcDbLine
 10
235.0978289533
 20
213.5378625798
 30
0.0
 11
230.9900556493
 21
213.5378625798
 31
0.0
  0
LINE
  5
177
330
1F
100
AcDbEntity
  8
0
  6
Continuous
 62
     7
370
    15
100
AcDbLine
 10
235.0978289533
 20
198.3378623235
 30
0.0
 11
231.6628132749
 21
198.3378623235
 31
0.0
  0
LINE
  5
178
330
1F
100
AcDbEntity
  8
0
  6
Continuous
 62
     7
370
    15
100
AcDbLine
 10
230.9900556493
 20
198.3405119362
 30
0.0
 11
230.9900556493
 21
199.1378628271
 31
0.0
  0
LINE
  5
179
330
1F
100
AcDbEntity
  8
0
  6
Continuous
 62
     7
370
    15
100
AcDbLine
 10
235.0978289533
 20
199.1378628271
 30
0.0
 11
230.9900556493
 21
199.1378628271
 31
0.0
  0
LINE
  5
17A
330
1F
100
AcDbEntity
  8
0
  6
Continuous
 62
     7
370
    15
100
AcDbLine
 10
229.0978242445
 20
213.5378625798
 30
0.0
 11
230.9900556493
 21
213.5378625798
 31
0.0
  0
LINE
  5
17B
330
1F
100
AcDbEntity
  8
0
  6
Continuous
 62
     7
370
    15
100
AcDbLine
 10
229.0978242445
 20
199.1378628271
 30
0.0
 11
230.9900556493
 21
199.1378628271
 31
0.0
  0
LINE
  5
17C
330
1F
100
AcDbEntity
  8
0
  6
Continuous
 62
     7
370
    15
100
AcDbLine
 10
230.1678244758
 20
214.6378625738
 30
0.0
 11
234.567824452
 21
214.6378625738
 31
0.0
  0
LINE
  5
17D
330
1F
100
AcDbEntity
  8
0
  6
Continuous
 62
     7
370
    15
100
AcDbLine
 10
230.2678261686
 20
197.937863003
 30
0.0
 11
234.4678302098
 21
197.937863003
 31
0.0
  0
LINE
  5
17E
330
1F
100
AcDbEntity
  8
0
  6
Continuous
 62
     7
370
    15
100
AcDbLine
 10
230.2678261686
 20
197.5378627512
 30
0.0
 11
234.4678302098
 21
197.5378627512
 31
0.0
  0
ARC
  5
17F
330
1F
100
AcDbEntity
  8
0
  6
Continuous
 62
     7
370
    15
100
AcDbCircle
 10
212.563771557
 20
206.3378627035
 30
0.0
 40
16.90403995399237
100
AcDbArc
 50
154.7902236235
 51
205.2097763765
  0
SPLINE
  5
180
330
1F
100
AcDbEntity
  8
0
  6
Continuous
 62
     7
370
    15
100
AcDbSpline
210
0.0
220
0.0
230
1.0
 70
     8
 71
     3
 72
    12
 73
     8
 74
     0
 42
0.00000001
 43
0.00000001
 40
0.0
 40
0.0
 40
0.0
 40
0.0
 40
0.1818723398322498
 40
0.3633441453432144
 40
0.5550803379662396
 40
0.7712613770059432
 40
1.0
 40
1.0
 40
1.0
 40
1.0
 10
197.4021454144014
 20
198.3378623234879
 30
0.0
 10
197.4260062421684
 20
198.3451839732516
 30
0.0
 10
197.4736753494125
 20
198.3598111484357
 30
0.0
 10
197.4884124344687
 20
198.471801141319
 30
0.0
 10
197.4611884076937
 20
198.6411928334786
 30
0.0
 10
197.3895081551559
 20
198.8696172441964
 30
0.0
 10
197.3104248929691
 20
199.0467808548296
 30
0.0
 10
197.2697672236456
 20
199.1378628271471
 30
0.0
  0
LINE
  5
181
330
1F
100
AcDbEntity
  8
0
  6
Continuous
 62
     7
370
    15
100
AcDbLine
 10
197.0177811373
 20
199.0923616658
 30
0.0
 11
197.372227608
 21
198.3378623235
 31
0.0
  0
ARC
  5
182
330
1F
100
AcDbEntity
  8
0
  6
Continuous
 62
     7
370
    15
100
AcDbCircle
 10
212.2884880784
 20
206.3378627035
 30
0.0
 40
16.90241922828408
100
AcDbArc
 50
154.6170368419
 51
205.3829631581
  0
LINE
  5
183
330
1F
100
AcDbEntity
  8
0
  6
Continuous
 62
     7
370
    15
100
AcDbLine
 10
197.372227608
 20
214.3378630834
 30
0.0
 11
197.0177811373
 21
213.5833637412
 31
0.0
  0
SPLINE
  5
184
330
1F
100
AcDbEntity
  8
0
  6
Continuous
 62
     7
370
    15
100
AcDbSpline
210
0.0
220
0.0
230
1.0
 70
     8
 71
     3
 72
    12
 73
     8
 74
     0
 42
0.00000001
 43
0.00000001
 40
0.0
 40
0.0
 40
0.0
 40
0.0
 40
0.2510216974581
 40
0.5023984045762419
 40
0.7402768941595013
 40
0.9473179129745757
 40
1.0
 40
1.0
 40
1.0
 40
1.0
 10
197.2697672236456
 20
213.5378625797879
 30
0.0
 10
197.314083919538
 20
213.6377448376371
 30
0.0
 10
197.4027799866028
 20
213.8376506127039
 30
0.0
 10
197.4777881143575
 20
214.0963839435515
 30
0.0
 10
197.4892678747075
 20
214.273618736537
 30
0.0
 10
197.447635939038
 20
214.3340618140521
 30
0.0
 10
197.4098166562132
 20
214.3372220607956
 30
0.0
 10
197.4021454144014
 20
214.3378630834471
 30
0.0
  0
LINE
  5
185
330
1F
100
AcDbEntity
  8
0
  6
Continuous
 62
     7
370
    15
100
AcDbLine
 10
197.4021454144
 20
214.3378630834
 30
0.0
 11
197.372227608
 21
214.3378630834
 31
0.0
  0
LINE
  5
186
330
1F
100
AcDbEntity
  8
0
  6
Continuous
 62
     7
370
    15
100
AcDbLine
 10
197.4021454144
 20
198.3378623235
 30
0.0
 11
197.372227608
 21
198.3378623235
 31
0.0
  0
LINE
  5
187
330
1F
100
AcDbEntity
  8
0
  6
Continuous
 62
     7
370
    15
100
AcDbLine
 10
199.2592473317
 20
213.5378625798
 30
0.0
 11
197.2697672236
 21
213.5378625798
 31
0.0
  0
LINE
  5
188
330
1F
100
AcDbEntity
  8
0
  6
Continuous
 62
     7
370
    15
100
AcDbLine
 10
199.2592473317
 20
199.1378628271
 30
0.0
 11
199.2592473317
 21
213.5378625798
 31
0.0
  0
LINE
  5
189
330
1F
100
AcDbEntity
  8
0
  6
Continuous
 62
     7
370
    15
100
AcDbLine
 10
197.2697672236
 20
199.1378628271
 30
0.0
 11
199.2592473317
 21
199.1378628271
 31
0.0
  0
LWPOLYLINE
  5
18A
330
1F
100
AcDbEntity
  8
0
  6
Continuous
 62
     7
370
    15
100
AcDbPolyline
 90
        9
 70
   128
 43
0.0
 10
199.2592473317
 20
213.5378625798
 10
199.2539872218
 20
213.6939350138
 10
199.2384192336
 20
213.8440092648
 10
199.2131319631
 20
213.9823190491
 10
199.1791051615
 20
214.1035479116
 10
199.1376426805
 20
214.2030383083
 10
199.0903389442
 20
214.2769666943
 10
199.0390081692
 20
214.322490673
 10
198.9856284845
 20
214.3378630834
  0
LINE
  5
18B
330
1F
100
AcDbEntity
  8
0
  6
Continuous
 62
     7
370
    15
100
AcDbLine
 10
197.4021454144
 20
214.3378630834
 30
0.0
 11
198.9856284845
 21
214.3378630834
 31
0.0
  0
LWPOLYLINE
  5
18C
330
1F
100
AcDbEntity
  8
0
  6
Continuous
 62
     7
370
    15
100
AcDbPolyline
 90
        9
 70
   128
 43
0.0
 10
199.2592473317
 20
199.1378628271
 10
199.2539872218
 20
198.9817903931
 10
199.2384192336
 20
198.8317161421
 10
199.2131319631
 20
198.6934063579
 10
199.1791051615
 20
198.5721774953
 10
199.1376426805
 20
198.4726870986
 10
199.0903389442
 20
198.3987587127
 10
199.0390081692
 20
198.3532347339
 10
198.9856284845
 20
198.3378623235
  0
LINE
  5
18D
330
1F
100
AcDbEntity
  8
0
  6
Continuous
 62
     7
370
    15
100
AcDbLine
 10
198.9856284845
 20
198.3378623235
 30
0.0
 11
197.4021454144
 21
198.3378623235
 31
0.0
  0
LINE
  5
18E
330
1F
100
AcDbEntity
  8
0
  6
Continuous
 62
     7
370
    15
100
AcDbLine
 10
199.2592473317
 20
199.1378628271
 30
0.0
 11
204.1580934811
 21
199.1378628271
 31
0.0
  0
LINE
  5
18F
330
1F
100
AcDbEntity
  8
0
  6
Continuous
 62
     7
370
    15
100
AcDbLine
 10
204.2970132816
 20
198.3378623235
 30
0.0
 11
198.9856284845
 21
198.3378623235
 31
0.0
  0
LINE
  5
190
330
1F
100
AcDbEntity
  8
0
  6
Continuous
 62
     7
370
    15
100
AcDbLine
 10
204.1580934811
 20
213.5378625798
 30
0.0
 11
199.2592473317
 21
213.5378625798
 31
0.0
  0
LINE
  5
191
330
1F
100
AcDbEntity
  8
0
  6
Continuous
 62
     7
370
    15
100
AcDbLine
 10
198.9856284845
 20
214.3378630834
 30
0.0
 11
204.2970132816
 21
214.3378630834
 31
0.0
  0
SPLINE
  5
192
330
1F
100
AcDbEntity
  8
0
  6
Continuous
 62
     7
370
    15
100
AcDbSpline
210
0.0
220
0.0
230
1.0
 70
     8
 71
     3
 72
    16
 73
    12
 74
     0
 42
0.00000001
 43
0.00000001
 40
0.0
 40
0.0
 40
0.0
 40
0.0
 40
0.1207071566778238
 40
0.2414138026719941
 40
0.3621183649329968
 40
0.4828244334300237
 40
0.6035304010997716
 40
0.7242373113019833
 40
0.844942319259683
 40
0.9656485835513967
 40
0.9999999999999999
 40
0.9999999999999999
 40
0.9999999999999999
 40
0.9999999999999999
 10
230.5401225376619
 20
193.385491203035
 30
0.0
 10
230.559526677815
 20
193.3881634961261
 30
0.0
 10
230.5983348760268
 20
193.3935080710024
 30
0.0
 10
230.6032546090724
 20
193.6844498772825
 30
0.0
 10
230.5660443371292
 20
194.1378002735147
 30
0.0
 10
230.489128568391
 20
194.7053202991326
 30
0.0
 10
230.3853140625127
 20
195.2936486446704
 30
0.0
 10
230.2692066030506
 20
195.8203411764627
 30
0.0
 10
230.1622096204601
 20
196.1836329257521
 30
0.0
 10
230.0896330515111
 20
196.354097635848
 30
0.0
 10
230.0700826989152
 20
196.3209470686173
 30
0.0
 10
230.0657515216364
 20
196.3136029052388
 30
0.0
  0
SPLINE
  5
193
330
1F
100
AcDbEntity
  8
0
  6
Continuous
 62
     7
370
    15
100
AcDbSpline
210
0.0
220
0.0
230
1.0
 70
     8
 71
     3
 72
    16
 73
    12
 74
     0
 42
0.00000001
 43
0.00000001
 40
0.0
 40
0.0
 40
0.0
 40
0.0
 40
0.1205802411602237
 40
0.2411629109963146
 40
0.3617457346389094
 40
0.4823269915945776
 40
0.6029090903734641
 40
0.7234904472457391
 40
0.8440739113133716
 40
0.964656251032841
 40
1.0
 40
1.0
 40
1.0
 40
1.0
 10
230.7107110310091
 20
219.2615150096666
 30
0.0
 10
230.730116042881
 20
219.2588421979225
 30
0.0
 10
230.7689264574725
 20
219.2534965205998
 30
0.0
 10
230.7738325752911
 20
218.9625525212628
 30
0.0
 10
230.7366268047936
 20
218.5092137926236
 30
0.0
 10
230.6597099491411
 20
217.9416843704489
 30
0.0
 10
230.5558918164368
 20
217.3533529027536
 30
0.0
 10
230.4398024885496
 20
216.8266960342707
 30
0.0
 10
230.3327718779284
 20
216.4632242904254
 30
0.0
 10
230.260021706777
 20
216.2926763610421
 30
0.0
 10
230.2403698223255
 20
216.3262617584389
 30
0.0
 10
230.2359153318895
 20
216.3338745566856
 30
0.0
  0
SPLINE
  5
194
330
1F
100
AcDbEntity
  8
0
  6
Continuous
 62
     7
370
    15
100
AcDbSpline
210
0.0
220
0.0
230
1.0
 70
     8
 71
     3
 72
    16
 73
    12
 74
     0
 42
0.00000001
 43
0.00000001
 40
0.0
 40
0.0
 40
0.0
 40
0.0
 40
0.1205149578428766
 40
0.2410324495601319
 40
0.3615498425755169
 40
0.4820660117024153
 40
0.6025828261582217
 40
0.7230988991090922
 40
0.8436170781144643
 40
0.9641341610538745
 40
1.0
 40
1.0
 40
1.0
 40
1.0
 10
246.0810948896898
 20
196.0019097286116
 30
0.0
 10
246.1004991134103
 20
196.0045824759593
 30
0.0
 10
246.1393079688326
 20
196.0099280268504
 30
0.0
 10
246.1442258851435
 20
196.3008730854791
 30
0.0
 10
246.1070199548481
 20
196.7542119463093
 30
0.0
 10
246.0300915846616
 20
197.321738251886
 30
0.0
 10
245.9262755466055
 20
197.9100776418801
 30
0.0
 10
245.8101891407153
 20
198.4367072755201
 30
0.0
 10
245.7031446828026
 20
198.8002803845263
 30
0.0
 10
245.6302921884244
 20
198.9708727373419
 30
0.0
 10
245.6105995555242
 20
198.9370577832001
 30
0.0
 10
245.6060831237329
 20
198.9293024497877
 30
0.0
  0
SPLINE
  5
195
330
1F
100
AcDbEntity
  8
0
  6
Continuous
 62
     7
370
    15
100
AcDbSpline
210
0.0
220
0.0
230
1.0
 70
     8
 71
     3
 72
    16
 73
    12
 74
     0
 42
0.00000001
 43
0.00000001
 40
0.0
 40
0.0
 40
0.0
 40
0.0
 40
0.1205148032021358
 40
0.2410321808312816
 40
0.3615495485090808
 40
0.4820656771210895
 40
0.6025824662394319
 40
0.723098808852727
 40
0.8436169625203481
 40
0.9641311157927398
 40
1.0
 40
1.0
 40
1.0
 40
1.0
 10
246.251683383037
 20
216.64509648409
 30
0.0
 10
246.2710844023499
 20
216.6424236376081
 30
0.0
 10
246.3098868554188
 20
216.6370778875471
 30
0.0
 10
246.3148081278878
 20
216.3461341316752
 30
0.0
 10
246.2775983282944
 20
215.8927954817727
 30
0.0
 10
246.2006821090619
 20
215.3252676976774
 30
0.0
 10
246.0968659276431
 20
214.7369277819394
 30
0.0
 10
245.9807675146115
 20
214.2102995767622
 30
0.0
 10
245.8737284649877
 20
213.846729091842
 30
0.0
 10
245.800870735058
 20
213.6761337715073
 30
0.0
 10
245.7811804417963
 20
213.7099483325719
 30
0.0
 10
245.7766641664995
 20
213.7177042285751
 30
0.0
  0
SPLINE
  5
196
330
1F
100
AcDbEntity
  8
0
  6
Continuous
 62
     7
370
    15
100
AcDbSpline
210
0.0
220
0.0
230
1.0
 70
    24
 71
     3
 72
    16
 73
    12
 74
     0
 42
0.00000001
 43
0.00000001
 40
0.0
 40
0.0
 40
0.0
 40
0.0
 40
0.06110719973516
 40
0.1864695300788104
 40
0.3118329657763518
 40
0.437195435243349
 40
0.562558541947342
 40
0.6879211427057613
 40
0.8132845673515391
 40
0.9386470368185362
 40
1.0
 40
1.0
 40
1.0
 40
1.0
 10
249.1580133128656
 20
199.4716269518088
 30
0.0
 10
249.1637866695778
 20
199.4716269518088
 30
0.0
 10
249.1814041535694
 20
199.4716269518088
 30
0.0
 10
248.9629691566844
 20
199.4716269518088
 30
0.0
 10
248.5502258774654
 20
199.4716269518088
 30
0.0
 10
247.9937606935062
 20
199.4716269518088
 30
0.0
 10
247.3946590301779
 20
199.4716269518088
 30
0.0
 10
246.8359459514508
 20
199.4716269518088
 30
0.0
 10
246.4190090175556
 20
199.4716269518088
 30
0.0
 10
246.1960058203493
 20
199.4716269518088
 30
0.0
 10
246.2108213742682
 20
199.4716269518088
 30
0.0
 10
246.2156896281732
 20
199.4716269518088
 30
0.0
  0
SPLINE
  5
197
330
1F
100
AcDbEntity
  8
0
  6
Continuous
 62
     7
370
    15
100
AcDbSpline
210
0.0
220
0.0
230
1.0
 70
    24
 71
     3
 72
    16
 73
    12
 74
     0
 42
0.00000001
 43
0.00000001
 40
0.0
 40
0.0
 40
0.0
 40
0.0
 40
0.061009639381562
 40
0.1861718232068119
 40
0.3113351106212064
 40
0.4364974333476865
 40
0.5616603922937852
 40
0.686822846102075
 40
0.8119861224823502
 40
0.9371484452088304
 40
1.0
 40
1.0
 40
1.0
 40
1.0
 10
249.1580133128656
 20
213.0302577833484
 30
0.0
 10
249.1637866633105
 20
213.0302577833484
 30
0.0
 10
249.1814041281773
 20
213.0302577833484
 30
0.0
 10
248.9629693920935
 20
213.0302577833484
 30
0.0
 10
248.5502250149553
 20
213.0302577833484
 30
0.0
 10
247.9937639081146
 20
213.0302577833484
 30
0.0
 10
247.3946470341984
 20
213.0302577833484
 30
0.0
 10
246.8359907206632
 20
213.0302577833484
 30
0.0
 10
246.4188419359581
 20
213.0302577833484
 30
0.0
 10
246.1953554972325
 20
213.0302577833484
 30
0.0
 10
246.2105672173418
 20
213.0302577833484
 30
0.0
 10
246.2156523752703
 20
213.0302577833484
 30
0.0
  0
SPLINE
  5
198
330
1F
100
AcDbEntity
  8
0
  6
Continuous
 62
     7
370
    15
100
AcDbSpline
210
0.0
220
0.0
230
1.0
 70
     8
 71
     3
 72
    19
 73
    15
 74
     0
 42
0.00000001
 43
0.00000001
 40
0.0
 40
0.0
 40
0.0
 40
0.0
 40
0.0039549809995185
 40
0.1157678183369959
 40
0.2280434424084984
 40
0.3355203096827233
 40
0.4377089451909085
 40
0.5348834340354809
 40
0.6283049581358076
 40
0.730298511094365
 40
0.8413364998007737
 40
0.96412105011313
 40
0.9937658791727169
 40
1.0
 40
1.0
 40
1.0
 40
1.0
 10
235.4861010599626
 20
211.9378625037919
 30
0.0
 10
235.4864958483913
 20
211.9378568909642
 30
0.0
 10
235.4980518571545
 20
211.9376925956579
 30
0.0
 10
235.5212828467252
 20
211.9225622293554
 30
0.0
 10
235.5647703946208
 20
211.855665088828
 30
0.0
 10
235.6027600001413
 20
211.7509695552363
 30
0.0
 10
235.6262513026907
 20
211.625892645932
 30
0.0
 10
235.6375814967506
 20
211.4974568998938
 30
0.0
 10
235.6381744798793
 20
211.3762822890255
 30
0.0
 10
235.6224045745478
 20
211.2670567904038
 30
0.0
 10
235.5820248704881
 20
211.1776398084468
 30
0.0
 10
235.5301581382914
 20
211.1425853417726
 30
0.0
 10
235.495453969323
 20
211.1379758133478
 30
0.0
 10
235.4874855984456
 20
211.1378796416914
 30
0.0
 10
235.4861010599626
 20
211.1378629314553
 30
0.0
  0
SPLINE
  5
199
330
1F
100
AcDbEntity
  8
0
  6
Continuous
 62
     7
370
    15
100
AcDbSpline
210
0.0
220
0.0
230
1.0
 70
     8
 71
     3
 72
    30
 73
    26
 74
     0
 42
0.00000001
 43
0.00000001
 40
0.0
 40
0.0
 40
0.0
 40
0.0
 40
0.1247112310147824
 40
0.2494130785656202
 40
0.3741280601702755
 40
0.4367858391931411
 40
0.4681550721330039
 40
0.4838427846542153
 40
0.4916894992656079
 40
0.4956138377050519
 40
0.4975728235122767
 40
0.4985522983263023
 40
0.4990422673122084
 40
0.4992870926954017
 40
0.4994095487741307
 40
0.4994707335600724
 40
0.4995013259530433
 40
0.4995195680690418
 40
0.4995320416496219
 40
0.5609187714698142
 40
0.6646254983300477
 40
0.7325782071981156
 40
0.811145407748365
 40
0.9002973933763253
 40
1.0
 40
1.0
 40
1.0
 40
1.0
 10
235.5577979970468
 20
211.9977544615816
 30
0.0
 10
235.5635648289751
 20
211.9959619106215
 30
0.0
 10
235.5750980589265
 20
211.9923769435755
 30
0.0
 10
235.6649467404971
 20
211.9705337712899
 30
0.0
 10
235.7724186269576
 20
211.9448557139761
 30
0.0
 10
235.8579720402429
 20
211.9244443438598
 30
0.0
 10
235.9020742920348
 20
211.913909375257
 30
0.0
 10
235.9242999751854
 20
211.9085904389379
 30
0.0
 10
235.9354334710982
 20
211.9059248531337
 30
0.0
 10
235.9410037710348
 20
211.9045923344598
 30
0.0
 10
235.9437875039676
 20
211.9039235508706
 30
0.0
 10
235.9451789198333
 20
211.9035910768909
 30
0.0
 10
235.945873640726
 20
211.9034227195747
 30
0.0
 10
235.9462217278878
 20
211.9033404538753
 30
0.0
 10
235.9463953218645
 20
211.9032978152285
 30
0.0
 10
235.9464824729031
 20
211.9032779589173
 30
0.0
 10
235.9465268752678
 20
211.9032662968864
 30
0.0
 10
235.9465521942812
 20
211.9032621816115
 30
0.0
 10
235.9708668350795
 20
211.8950679979424
 30
0.0
 10
236.0393600325642
 20
211.8843423221076
 30
0.0
 10
236.1296624301866
 20
211.8628124308535
 30
0.0
 10
236.2133261575435
 20
211.8459426545584
 30
0.0
 10
236.2768480629127
 20
211.8329848590227
 30
0.0
 10
236.3273627545466
 20
211.823360843945
 30
0.0
 10
236.3345930921691
 20
211.8228959065904
 30
0.0
 10
236.3384102273477
 20
211.8226504507314
 30
0.0
  0
ELLIPSE
  5
19A
330
1F
100
AcDbEntity
  8
0
  6
Continuous
 62
     7
370
    15
100
AcDbEllipse
 10
236.2149357115
 20
213.1198378822
 30
0.0
 11
0.3906095144045594
 21
-0.0861638396116291
 31
0.0
210
0.0
220
0.0
230
1.0
 40
0.0142285888
 41
0.0
 42
6.283185307179586
  0
LINE
  5
19B
330
1F
100
AcDbEntity
  8
0
  6
Continuous
 62
     7
370
    15
100
AcDbLine
 10
235.3878279019
 20
200.5878626923
 30
0.0
 11
235.3878279019
 21
199.5878625284
 31
0.0
  0
LINE
  5
19C
330
1F
100
AcDbEntity
  8
0
  6
Continuous
 62
     7
370
    15
100
AcDbLine
 10
229.1878272582
 20
200.5878626923
 30
0.0
 11
229.1878272582
 21
199.5878625284
 31
0.0
  0
LINE
  5
19D
330
1F
100
AcDbEntity
  8
0
  6
Continuous
 62
     7
370
    15
100
AcDbLine
 10
235.3878279019
 20
200.5878626923
 30
0.0
 11
229.1878272582
 21
200.5878626923
 31
0.0
  0
LINE
  5
19E
330
1F
100
AcDbEntity
  8
0
  6
Continuous
 62
     7
370
    15
100
AcDbLine
 10
235.3878279019
 20
199.5878625284
 30
0.0
 11
229.1878272582
 21
199.5878625284
 31
0.0
  0
LINE
  5
19F
330
1F
100
AcDbEntity
  8
0
  6
Continuous
 62
     7
370
    15
100
AcDbLine
 10
235.3878279019
 20
213.0878628786
 30
0.0
 11
235.3878279019
 21
212.0878627146
 31
0.0
  0
LINE
  5
1A0
330
1F
100
AcDbEntity
  8
0
  6
Continuous
 62
     7
370
    15
100
AcDbLine
 10
229.1878272582
 20
213.0878628786
 30
0.0
 11
229.1878272582
 21
212.0878627146
 31
0.0
  0
LINE
  5
1A1
330
1F
100
AcDbEntity
  8
0
  6
Continuous
 62
     7
370
    15
100
AcDbLine
 10
235.3878279019
 20
212.0878627146
 30
0.0
 11
229.1878272582
 21
212.0878627146
 31
0.0
  0
LINE
  5
1A2
330
1F
100
AcDbEntity
  8
0
  6
Continuous
 62
     7
370
    15
100
AcDbLine
 10
235.3878279019
 20
213.0878628786
 30
0.0
 11
229.1878272582
 21
213.0878628786
 31
0.0
  0
LWPOLYLINE
  5
1A3
330
1F
100
AcDbEntity
  8
0
  6
Continuous
 62
     7
370
    15
100
AcDbPolyline
 90
        3
 70
   128
 43
0.0
 10
229.1091267753
 20
199.9767241622
 10
229.1117046762
 20
199.9705462339
 10
229.1878272582
 20
199.5878625284
  0
LWPOLYLINE
  5
1A4
330
1F
100
AcDbEntity
  8
0
  6
Continuous
 62
     7
370
    15
100
AcDbPolyline
 90
        3
 70
   128
 43
0.0
 10
229.1878272582
 20
213.0878628786
 10
229.1117046762
 20
212.705179173
 10
229.1091267753
 20
212.6990012447
  0
LINE
  5
1A5
330
1F
100
AcDbEntity
  8
0
  6
Continuous
 62
     7
370
    15
100
AcDbLine
 10
235.3878279019
 20
212.0878627146
 30
0.0
 11
235.3878279019
 21
211.9378625038
 31
0.0
  0
LINE
  5
1A6
330
1F
100
AcDbEntity
  8
0
  6
Continuous
 62
     7
370
    15
100
AcDbLine
 10
235.3878279019
 20
211.1378629315
 30
0.0
 11
235.3878279019
 21
210.2378625977
 31
0.0
  0
LINE
  5
1A7
330
1F
100
AcDbEntity
  8
0
  6
Continuous
 62
     7
370
    15
100
AcDbLine
 10
235.3878279019
 20
201.6378627713
 30
0.0
 11
235.3878279019
 21
200.5878626923
 31
0.0
  0
LINE
  5
1A8
330
1F
100
AcDbEntity
  8
0
  6
Continuous
 62
     7
370
    15
100
AcDbLine
 10
152.3878273356
 20
341.3378680679
 30
0.0
 11
167.3878270004
 21
341.3378680679
 31
0.0
  0
LINE
  5
1A9
330
1F
100
AcDbEntity
  8
0
  6
Continuous
 62
     7
370
    15
100
AcDbLine
 10
167.3878270004
 20
341.3378680679
 30
0.0
 11
167.3878270004
 21
71.337857339
 31
0.0
  0
LINE
  5
1AA
330
1F
100
AcDbEntity
  8
0
  6
Continuous
 62
     7
370
    15
100
AcDbLine
 10
167.3878270004
 20
71.337857339
 30
0.0
 11
152.3878273356
 21
71.337857339
 31
0.0
  0
LINE
  5
1AB
330
1F
100
AcDbEntity
  8
0
  6
Continuous
 62
     7
370
    15
100
AcDbLine
 10
152.3878273356
 20
341.3378680679
 30
0.0
 11
152.3878273356
 21
71.337857339
 31
0.0
  0
ARC
  5
1AC
330
1F
100
AcDbEntity
  8
0
  6
Continuous
 62
     7
370
    15
100
AcDbCircle
 10
167.3878273178
 20
341.3378627035
 30
0.0
 40
14.99999999999997
100
AcDbArc
 50
90.0
 51
180.0
  0
LINE
  5
1AD
330
1F
100
AcDbEntity
  8
0
  6
Continuous
 62
     7
370
    15
100
AcDbLine
 10
167.3878270004
 20
356.3378686639
 30
0.0
 11
167.3878270004
 21
341.3378680679
 31
0.0
  0
LINE
  5
1AE
330
1F
100
AcDbEntity
  8
0
  6
Continuous
 62
     7
370
    15
100
AcDbLine
 10
167.3878270004
 20
71.337857339
 30
0.0
 11
167.3878270004
 21
56.337856743
 31
0.0
  0
ARC
  5
1AF
330
1F
100
AcDbEntity
  8
0
  6
Continuous
 62
     7
370
    15
100
AcDbCircle
 10
167.3878273178
 20
71.3378627035
 30
0.0
 40
14.99999999999999
100
AcDbArc
 50
180.0
 51
270.0
  0
LINE
  5
1B0
330
1F
100
AcDbEntity
  8
0
  6
Continuous
 62
     7
370
    15
100
AcDbLine
 10
248.3878244448
 20
341.3378680679
 30
0.0
 11
167.3878270004
 21
341.3378680679
 31
0.0
  0
LINE
  5
1B1
330
1F
100
AcDbEntity
  8
0
  6
Continuous
 62
     7
370
    15
100
AcDbLine
 10
248.3878244448
 20
356.3378686639
 30
0.0
 11
167.3878270004
 21
356.3378686639
 31
0.0
  0
LINE
  5
1B2
330
1F
100
AcDbEntity
  8
0
  6
Continuous
 62
     7
370
    15
100
AcDbLine
 10
248.3878244448
 20
356.3378686639
 30
0.0
 11
248.3878244448
 21
341.3378680679
 31
0.0
  0
LINE
  5
1B3
330
1F
100
AcDbEntity
  8
0
  6
Continuous
 62
     7
370
    15
100
AcDbLine
 10
248.3878244448
 20
56.337856743
 30
0.0
 11
167.3878270004
 21
56.337856743
 31
0.0
  0
LINE
  5
1B4
330
1F
100
AcDbEntity
  8
0
  6
Continuous
 62
     7
370
    15
100
AcDbLine
 10
248.3878244448
 20
71.337857339
 30
0.0
 11
167.3878270004
 21
71.337857339
 31
0.0
  0
LINE
  5
1B5
330
1F
100
AcDbEntity
  8
0
  6
Continuous
 62
     7
370
    15
100
AcDbLine
 10
248.3878244448
 20
71.337857339
 30
0.0
 11
248.3878244448
 21
56.337856743
 31
0.0
  0
LINE
  5
1B6
330
1F
100
AcDbEntity
  8
0
  6
Continuous
 62
     7
370
    15
100
AcDbLine
 10
248.3878244448
 20
71.337857339
 30
0.0
 11
248.3878244448
 21
197.3299552309
 31
0.0
  0
LINE
  5
1B7
330
1F
100
AcDbEntity
  8
0
  6
Continuous
 62
     7
370
    15
100
AcDbLine
 10
248.3878244448
 20
215.3137922841
 30
0.0
 11
248.3878244448
 21
341.3378680679
 31
0.0
  0
LINE
  5
1B8
330
1F
100
AcDbEntity
  8
0
  6
Continuous
 62
     7
370
    15
100
AcDbLine
 10
228.3878286171
 20
76.3378674718
 30
0.0
 11
172.3878268886
 21
76.3378674718
 31
0.0
  0
LINE
  5
1B9
330
1F
100
AcDbEntity
  8
0
  6
Continuous
 62
     7
370
    15
100
AcDbLine
 10
228.3878286171
 20
76.3378674718
 30
0.0
 11
228.3878286171
 21
193.5253162491
 31
0.0
  0
LINE
  5
1BA
330
1F
100
AcDbEntity
  8
0
  6
Continuous
 62
     7
370
    15
100
AcDbLine
 10
228.3878286171
 20
196.8651023316
 30
0.0
 11
228.3878286171
 21
198.3378623235
 31
0.0
  0
LINE
  5
1BB
330
1F
100
AcDbEntity
  8
0
  6
Continuous
 62
     7
370
    15
100
AcDbLine
 10
228.3878286171
 20
214.3378630834
 30
0.0
 11
228.3878286171
 21
215.7972651156
 31
0.0
  0
LINE
  5
1BC
330
1F
100
AcDbEntity
  8
0
  6
Continuous
 62
     7
370
    15
100
AcDbLine
 10
228.3878286171
 20
219.139981139
 30
0.0
 11
228.3878286171
 21
336.3378579351
 31
0.0
  0
LINE
  5
1BD
330
1F
100
AcDbEntity
  8
0
  6
Continuous
 62
     7
370
    15
100
AcDbLine
 10
228.3878286171
 20
336.3378579351
 30
0.0
 11
172.3878268886
 21
336.3378579351
 31
0.0
  0
LINE
  5
1BE
330
1F
100
AcDbEntity
  8
0
  6
Continuous
 62
     7
370
    15
100
AcDbLine
 10
172.3878268886
 20
336.3378579351
 30
0.0
 11
172.3878268886
 21
76.3378674718
 31
0.0
  0
LINE
  5
1BF
330
1F
100
AcDbEntity
  8
0
  6
Continuous
 62
     7
370
    15
100
AcDbLine
 10
252.3878251005
 20
351.3378585311
 30
0.0
 11
248.3878244448
 21
351.3378585311
 31
0.0
  0
LINE
  5
1C0
330
1F
100
AcDbEntity
  8
0
  6
Continuous
 62
     7
370
    15
100
AcDbLine
 10
252.3878251005
 20
336.3378579351
 30
0.0
 11
248.3878244448
 21
336.3378579351
 31
0.0
  0
LINE
  5
1C1
330
1F
100
AcDbEntity
  8
0
  6
Continuous
 62
     7
370
    15
100
AcDbLine
 10
252.3878251005
 20
76.3378674718
 30
0.0
 11
248.3878244448
 21
76.3378674718
 31
0.0
  0
LINE
  5
1C2
330
1F
100
AcDbEntity
  8
0
  6
Continuous
 62
     7
370
    15
100
AcDbLine
 10
252.3878251005
 20
61.3378668758
 30
0.0
 11
248.3878244448
 21
61.3378668758
 31
0.0
  0
LINE
  5
1C3
330
1F
100
AcDbEntity
  8
0
  6
Continuous
 62
     7
370
    15
100
AcDbLine
 10
412.9249848625
 20
432.2527245919
 30
0.0
 11
414.1249753735
 21
432.2527245919
 31
0.0
  0
LINE
  5
1C4
330
1F
100
AcDbEntity
  8
0
  6
Continuous
 62
     7
370
    15
100
AcDbLine
 10
412.8249831697
 20
434.7527222077
 30
0.0
 11
412.9249848625
 21
434.7527222077
 31
0.0
  0
LINE
  5
1C5
330
1F
100
AcDbEntity
  8
0
  6
Continuous
 62
     7
370
    15
100
AcDbLine
 10
412.9249848625
 20
440.7527269165
 30
0.0
 11
412.8249831697
 21
440.7527269165
 31
0.0
  0
LINE
  5
1C6
330
1F
100
AcDbEntity
  8
0
  6
Continuous
 62
     7
370
    15
100
AcDbLine
 10
408.676738312
 20
497.752723221
 30
0.0
 11
407.9249747297
 21
497.4791080992
 31
0.0
  0
SPLINE
  5
1C7
330
1F
100
AcDbEntity
  8
0
  6
Continuous
 62
     7
370
    15
100
AcDbSpline
210
0.0
220
0.0
230
1.0
 70
     8
 71
     3
 72
    15
 73
    11
 74
     0
 42
0.00000001
 43
0.00000001
 40
0.0
 40
0.0
 40
0.0
 40
0.0
 40
0.1250744365219807
 40
0.2501503690700617
 40
0.3752914238507727
 40
0.5003033456113692
 40
0.6252875688433512
 40
0.7502617631629114
 40
0.8750784298966161
 40
0.9999999999999999
 40
0.9999999999999999
 40
0.9999999999999999
 40
0.9999999999999999
 10
411.7394186756111
 20
462.8105582038979
 30
0.0
 10
411.7132936937517
 20
463.069319780473
 30
0.0
 10
411.6610434175496
 20
463.5868460286928
 30
0.0
 10
411.5821761462921
 20
464.3679587013545
 30
0.0
 10
411.5077442708954
 20
465.105139797325
 30
0.0
 10
411.4407530608322
 20
465.7687162207905
 30
0.0
 10
411.3846463184595
 20
466.3244794395721
 30
0.0
 10
411.3421043594378
 20
466.7455757219802
 30
0.0
 10
411.3132782533813
 20
467.0311832767244
 30
0.0
 10
411.3089356660649
 20
467.0742182219562
 30
0.0
 10
411.3067634603477
 20
467.0957447330574
 30
0.0
  0
SPLINE
  5
1C8
330
1F
100
AcDbEntity
  8
0
  6
Continuous
 62
     7
370
    15
100
AcDbSpline
210
0.0
220
0.0
230
1.0
 70
     8
 71
     3
 72
    15
 73
    11
 74
     0
 42
0.00000001
 43
0.00000001
 40
0.0
 40
0.0
 40
0.0
 40
0.0
 40
0.124939617022092
 40
0.2497688509603433
 40
0.374751241408195
 40
0.4997376030196825
 40
0.6247470132670949
 40
0.7498793343755585
 40
0.8749425669552483
 40
1.0
 40
1.0
 40
1.0
 40
1.0
 10
408.322522809217
 20
466.7943612973312
 30
0.0
 10
408.324699533441
 20
466.7727831356634
 30
0.0
 10
408.3290510587715
 20
466.7296458764492
 30
0.0
 10
408.3578971200376
 20
466.4439355294988
 30
0.0
 10
408.4004333627134
 20
466.0227520323707
 30
0.0
 10
408.4565402554481
 20
465.4669760903795
 30
0.0
 10
408.5235359994649
 20
464.8034542591419
 30
0.0
 10
408.5979471107609
 20
464.0664049776044
 30
0.0
 10
408.6768055272082
 20
463.2854949075281
 30
0.0
 10
408.7290343941841
 20
462.768137864409
 30
0.0
 10
408.755148222158
 20
462.509465340815
 30
0.0
  0
LINE
  5
1C9
330
1F
100
AcDbEntity
  8
0
  6
Continuous
 62
     7
370
    15
100
AcDbLine
 10
408.7548651001
 20
462.5093312304
 30
0.0
 11
410.3239424726
 21
446.9683588783
 31
0.0
  0
LINE
  5
1CA
330
1F
100
AcDbEntity
  8
0
  6
Continuous
 62
     7
370
    15
100
AcDbLine
 10
413.3087642691
 20
447.2697199623
 30
0.0
 11
411.7397017977
 21
462.8106923143
 31
0.0
  0
SPLINE
  5
1CB
330
1F
100
AcDbEntity
  8
0
  6
Continuous
 62
     7
370
    15
100
AcDbSpline
210
0.0
220
0.0
230
1.0
 70
     8
 71
     3
 72
     9
 73
     5
 74
     0
 42
0.00000001
 43
0.00000001
 40
0.0
 40
0.0
 40
0.0
 40
0.0
 40
0.4837383992592056
 40
0.9999999999999999
 40
0.9999999999999999
 40
0.9999999999999999
 40
0.9999999999999999
 10
410.4940243265128
 20
445.2869863550285
 30
0.0
 10
410.503484903948
 20
445.2227548749057
 30
0.0
 10
410.5230421221668
 20
445.0899734372089
 30
0.0
 10
410.5568848075696
 20
445.0538258121889
 30
0.0
 10
410.5743564865089
 20
445.0351641814331
 30
0.0
  0
SPLINE
  5
1CC
330
1F
100
AcDbEntity
  8
0
  6
Continuous
 62
     7
370
    15
100
AcDbSpline
210
0.0
220
0.0
230
1.0
 70
     8
 71
     3
 72
    11
 73
     7
 74
     0
 42
0.00000001
 43
0.00000001
 40
0.0
 40
0.0
 40
0.0
 40
0.0
 40
0.2484400313536671
 40
0.4978858035227358
 40
0.7483872183351494
 40
1.0
 40
1.0
 40
1.0
 40
1.0
 10
410.3242255947089
 20
446.9685153405288
 30
0.0
 10
410.3422404065548
 20
446.7900437641192
 30
0.0
 10
410.3783429582343
 20
446.4323781184401
 30
0.0
 10
410.4253358442805
 20
445.9675416369029
 30
0.0
 10
410.4641645243734
 20
445.5846612738756
 30
0.0
 10
410.4791922591405
 20
445.4373664120801
 30
0.0
 10
410.4867227575279
 20
445.3635559718231
 30
0.0
  0
SPLINE
  5
1CD
330
1F
100
AcDbEntity
  8
0
  6
Continuous
 62
     7
370
    15
100
AcDbSpline
210
0.0
220
0.0
230
1.0
 70
     8
 71
     3
 72
    19
 73
    15
 74
     0
 42
0.00000001
 43
0.00000001
 40
0.0
 40
0.0
 40
0.0
 40
0.0
 40
0.080281755629487
 40
0.1534415944044286
 40
0.2193411972437899
 40
0.2779493423871587
 40
0.3728442556420708
 40
0.4421532682602004
 40
0.5315367006395667
 40
0.6554833364437546
 40
0.7303570865728389
 40
0.8130797286521475
 40
0.9031427835411386
 40
1.0
 40
1.0
 40
1.0
 40
1.0
 10
410.5096705457664
 20
445.2043445150475
 30
0.0
 10
410.545030135399
 20
445.081467608381
 30
0.0
 10
410.6126125115961
 20
444.8466143926465
 30
0.0
 10
410.8098451540081
 20
444.5522069933342
 30
0.0
 10
411.0346912372971
 20
444.3280755970452
 30
0.0
 10
411.3303641078518
 20
444.1350463652587
 30
0.0
 10
411.672306923499
 20
444.0171280380893
 30
0.0
 10
412.0820615677503
 20
443.987343691335
 30
0.0
 10
412.5211486196304
 20
444.0896366184723
 30
0.0
 10
412.9076904412905
 20
444.3408677342858
 30
0.0
 10
413.2005287621394
 20
444.6815902050006
 30
0.0
 10
413.3812939731337
 20
445.0370582819751
 30
0.0
 10
413.4872189475232
 20
445.4639946486629
 30
0.0
 10
413.4549476851857
 20
445.7590605113261
 30
0.0
 10
413.4382255575157
 20
445.9119559566597
 30
0.0
  0
SPLINE
  5
1CE
330
1F
100
AcDbEntity
  8
0
  6
Continuous
 62
     7
370
    15
100
AcDbSpline
210
0.0
220
0.0
230
1.0
 70
     8
 71
     3
 72
    11
 73
     7
 74
     0
 42
0.00000001
 43
0.00000001
 40
0.0
 40
0.0
 40
0.0
 40
0.0
 40
0.2477436400961851
 40
0.4969471568772039
 40
0.7476766819245632
 40
1.0
 40
1.0
 40
1.0
 40
1.0
 10
413.4620078107811
 20
445.7442806403259
 30
0.0
 10
413.4555657259252
 20
445.8089066736021
 30
0.0
 10
413.4426435949989
 20
445.9385395613904
 30
0.0
 10
413.4066905597224
 20
446.2964060945956
 30
0.0
 10
413.3617058718041
 20
446.7427325912189
 30
0.0
 10
413.3262700790955
 20
447.0935975566404
 30
0.0
 10
413.3084960481621
 20
447.26958585187
 30
0.0
  0
LINE
  5
1CF
330
1F
100
AcDbEntity
  8
0
  6
Continuous
 62
     7
370
    15
100
AcDbLine
 10
413.5922886631
 20
456.9243909161
 30
0.0
 11
413.5922737619
 21
457.2242097299
 31
0.0
  0
LINE
  5
1D0
330
1F
100
AcDbEntity
  8
0
  6
Continuous
 62
     7
370
    15
100
AcDbLine
 10
412.7922751209
 20
457.2242097299
 30
0.0
 11
412.7922751209
 21
456.9268421571
 31
0.0
  0
SPLINE
  5
1D1
330
1F
100
AcDbEntity
  8
0
  6
Continuous
 62
     7
370
    15
100
AcDbSpline
210
0.0
220
0.0
230
1.0
 70
    24
 71
     3
 72
    11
 73
     7
 74
     0
 42
0.00000001
 43
0.00000001
 40
0.0
 40
0.0
 40
0.0
 40
0.0
 40
0.0207833414794417
 40
0.3465559490330116
 40
0.6711464500042603
 40
0.9999999999999999
 40
0.9999999999999999
 40
0.9999999999999999
 40
0.9999999999999999
 10
412.7922751209236
 20
457.5105280916313
 30
0.0
 10
412.7922751209236
 20
457.5072063791355
 30
0.0
 10
412.7922751209238
 20
457.4518178253981
 30
0.0
 10
412.7922751209236
 20
457.3585854376228
 30
0.0
 10
412.7922751209235
 20
457.2458704525863
 30
0.0
 10
412.7922751209236
 20
457.2113536958778
 30
0.0
 10
412.7922751209236
 20
457.1939827243904
 30
0.0
  0
SPLINE
  5
1D2
330
1F
100
AcDbEntity
  8
0
  6
Continuous
 62
     7
370
    15
100
AcDbSpline
210
0.0
220
0.0
230
1.0
 70
    24
 71
     3
 72
    11
 73
     7
 74
     0
 42
0.00000001
 43
0.00000001
 40
0.0
 40
0.0
 40
0.0
 40
0.0
 40
0.250483117174979
 40
0.4977293257689061
 40
0.7458640769072823
 40
1.0
 40
1.0
 40
1.0
 40
1.0
 10
413.5922886630989
 20
457.191531483374
 30
0.0
 10
413.5922886630989
 20
457.2077452807044
 30
0.0
 10
413.5922886630989
 20
457.2399633499477
 30
0.0
 10
413.5922886630989
 20
457.3487475741866
 30
0.0
 10
413.5922886630989
 20
457.4875791807567
 30
0.0
 10
413.5922886630988
 20
457.5946059476339
 30
0.0
 10
413.5922886630989
 20
457.6487587134461
 30
0.0
  0
LINE
  5
1D3
330
1F
100
AcDbEntity
  8
0
  6
Continuous
 62
     7
370
    15
100
AcDbLine
 10
412.5855513117
 20
457.7527241151
 30
0.0
 11
412.7944655916
 21
457.5054989497
 31
0.0
  0
LINE
  5
1D4
330
1F
100
AcDbEntity
  8
0
  6
Continuous
 62
     7
370
    15
100
AcDbLine
 10
413.5922886631
 20
457.6487587134
 30
0.0
 11
413.5922886631
 21
457.7527241151
 31
0.0
  0
LINE
  5
1D5
330
1F
100
AcDbEntity
  8
0
  6
Continuous
 62
     7
370
    15
100
AcDbLine
 10
408.3158917925
 20
466.8907494585
 30
0.0
 11
408.3002902767
 21
467.3499734442
 31
0.0
  0
SPLINE
  5
1D6
330
1F
100
AcDbEntity
  8
0
  6
Continuous
 62
     7
370
    15
100
AcDbSpline
210
0.0
220
0.0
230
1.0
 70
     8
 71
     3
 72
    11
 73
     7
 74
     0
 42
0.00000001
 43
0.00000001
 40
0.0
 40
0.0
 40
0.0
 40
0.0
 40
0.1207586884497559
 40
0.4133941938278811
 40
0.7063576004656975
 40
1.0
 40
1.0
 40
1.0
 40
1.0
 10
410.3485740920997
 20
446.727310244284
 30
0.0
 10
410.3584915863381
 20
446.6290097738472
 30
0.0
 10
410.3924422244918
 20
446.2924969791917
 30
0.0
 10
410.439814038452
 20
445.8235792851453
 30
0.0
 10
410.4826953370999
 20
445.3988526971413
 30
0.0
 10
410.4902450837789
 20
445.3243038990032
 30
0.0
 10
410.4940243265129
 20
445.2869863550285
 30
0.0
  0
LINE
  5
1D7
330
1F
100
AcDbEntity
  8
0
  6
Continuous
 62
     7
370
    15
100
AcDbLine
 10
414.1249753735
 20
496.7527249198
 30
0.0
 11
413.8249851963
 21
496.7527249198
 31
0.0
  0
LINE
  5
1D8
330
1F
100
AcDbEntity
  8
0
  6
Continuous
 62
     7
370
    15
100
AcDbLine
 10
413.8249851963
 20
495.7527228932
 30
0.0
 11
413.7249835035
 21
495.7527228932
 31
0.0
  0
LINE
  5
1D9
330
1F
100
AcDbEntity
  8
0
  6
Continuous
 62
     7
370
    15
100
AcDbLine
 10
413.7249835035
 20
489.752725635
 30
0.0
 11
413.8249851963
 21
489.752725635
 31
0.0
  0
LINE
  5
1DA
330
1F
100
AcDbEntity
  8
0
  6
Continuous
 62
     7
370
    15
100
AcDbLine
 10
413.8249851963
 20
472.7527247111
 30
0.0
 11
413.7249835035
 21
472.7527247111
 31
0.0
  0
LINE
  5
1DB
330
1F
100
AcDbEntity
  8
0
  6
Continuous
 62
     7
370
    15
100
AcDbLine
 10
413.7249835035
 20
466.752727453
 30
0.0
 11
413.8249851963
 21
466.752727453
 31
0.0
  0
LINE
  5
1DC
330
1F
100
AcDbEntity
  8
0
  6
Continuous
 62
     7
370
    15
100
AcDbLine
 10
699.1249866983
 20
440.7527269165
 30
0.0
 11
699.1249866983
 21
435.7527242343
 31
0.0
  0
LINE
  5
1DD
330
1F
100
AcDbEntity
  8
0
  6
Continuous
 62
     7
370
    15
100
AcDbLine
 10
714.1249872944
 20
440.7527269165
 30
0.0
 11
714.1249872944
 21
435.7527242343
 31
0.0
  0
LINE
  5
1DE
330
1F
100
AcDbEntity
  8
0
  6
Continuous
 62
     7
370
    15
100
AcDbLine
 10
714.1249872944
 20
435.7527242343
 30
0.0
 11
699.1249866983
 21
435.7527242343
 31
0.0
  0
LINE
  5
1DF
330
1F
100
AcDbEntity
  8
0
  6
Continuous
 62
     7
370
    15
100
AcDbLine
 10
714.1249872944
 20
440.7527269165
 30
0.0
 11
699.1249866983
 21
440.7527269165
 31
0.0
  0
ARC
  5
1E0
330
1F
100
AcDbEntity
  8
0
  6
Continuous
 62
     7
370
    15
100
AcDbCircle
 10
699.1249813339
 20
435.7527246992
 30
0.0
 40
15.0
100
AcDbArc
 50
270.0
 51
0.0
  0
LINE
  5
1E1
330
1F
100
AcDbEntity
  8
0
  6
Continuous
 62
     7
370
    15
100
AcDbLine
 10
699.1249866983
 20
435.7527242343
 30
0.0
 11
699.1249866983
 21
420.7527236383
 31
0.0
  0
LINE
  5
1E2
330
1F
100
AcDbEntity
  8
0
  6
Continuous
 62
     7
370
    15
100
AcDbLine
 10
429.1249759695
 20
440.7527269165
 30
0.0
 11
429.1249759695
 21
435.7527242343
 31
0.0
  0
LINE
  5
1E3
330
1F
100
AcDbEntity
  8
0
  6
Continuous
 62
     7
370
    15
100
AcDbLine
 10
429.1249759695
 20
435.7527242343
 30
0.0
 11
699.1249866983
 21
435.7527242343
 31
0.0
  0
LINE
  5
1E4
330
1F
100
AcDbEntity
  8
0
  6
Continuous
 62
     7
370
    15
100
AcDbLine
 10
429.1249759695
 20
440.7527269165
 30
0.0
 11
699.1249866983
 21
440.7527269165
 31
0.0
  0
LINE
  5
1E5
330
1F
100
AcDbEntity
  8
0
  6
Continuous
 62
     7
370
    15
100
AcDbLine
 10
429.1249759695
 20
420.7527236383
 30
0.0
 11
699.1249866983
 21
420.7527236383
 31
0.0
  0
LINE
  5
1E6
330
1F
100
AcDbEntity
  8
0
  6
Continuous
 62
     7
370
    15
100
AcDbLine
 10
429.1249759695
 20
420.7527236383
 30
0.0
 11
429.1249759695
 21
435.7527242343
 31
0.0
  0
LINE
  5
1E7
330
1F
100
AcDbEntity
  8
0
  6
Continuous
 62
     7
370
    15
100
AcDbLine
 10
414.1249753735
 20
440.7527269165
 30
0.0
 11
414.1249753735
 21
435.7527242343
 31
0.0
  0
LINE
  5
1E8
330
1F
100
AcDbEntity
  8
0
  6
Continuous
 62
     7
370
    15
100
AcDbLine
 10
414.1249753735
 20
435.7527242343
 30
0.0
 11
429.1249759695
 21
435.7527242343
 31
0.0
  0
LINE
  5
1E9
330
1F
100
AcDbEntity
  8
0
  6
Continuous
 62
     7
370
    15
100
AcDbLine
 10
414.1249753735
 20
440.7527269165
 30
0.0
 11
429.1249759695
 21
440.7527269165
 31
0.0
  0
ARC
  5
1EA
330
1F
100
AcDbEntity
  8
0
  6
Continuous
 62
     7
370
    15
100
AcDbCircle
 10
429.1249813339
 20
435.7527246992
 30
0.0
 40
15.0
100
AcDbArc
 50
180.0
 51
270.0
  0
LINE
  5
1EB
330
1F
100
AcDbEntity
  8
0
  6
Continuous
 62
     7
370
    15
100
AcDbLine
 10
412.9249848625
 20
438.7704924981
 30
0.0
 11
414.1249753735
 21
438.7704924981
 31
0.0
  0
LINE
  5
1EC
330
1F
100
AcDbEntity
  8
0
  6
Continuous
 62
     7
370
    15
100
AcDbLine
 10
412.9249848625
 20
436.6665155928
 30
0.0
 11
414.1249753735
 21
436.6665155928
 31
0.0
  0
LINE
  5
1ED
330
1F
100
AcDbEntity
  8
0
  6
Continuous
 62
     7
370
    15
100
AcDbLine
 10
412.9249848625
 20
436.6665155928
 30
0.0
 11
412.9249848625
 21
438.7704924981
 31
0.0
  0
LINE
  5
1EE
330
1F
100
AcDbEntity
  8
0
  6
Continuous
 62
     7
370
    15
100
AcDbLine
 10
412.9249848625
 20
443.7527255456
 30
0.0
 11
414.1249753735
 21
443.7527255456
 31
0.0
  0
LINE
  5
1EF
330
1F
100
AcDbEntity
  8
0
  6
Continuous
 62
     7
370
    15
100
AcDbLine
 10
414.1249753735
 20
440.7527269165
 30
0.0
 11
414.1249753735
 21
443.7527255456
 31
0.0
  0
LINE
  5
1F0
330
1F
100
AcDbEntity
  8
0
  6
Continuous
 62
     7
370
    15
100
AcDbLine
 10
412.9249848625
 20
443.7527255456
 30
0.0
 11
412.9249848625
 21
438.7704924981
 31
0.0
  0
LINE
  5
1F1
330
1F
100
AcDbEntity
  8
0
  6
Continuous
 62
     7
370
    15
100
AcDbLine
 10
414.1249753735
 20
435.7527242343
 30
0.0
 11
414.1249753735
 21
432.2527245919
 31
0.0
  0
LINE
  5
1F2
330
1F
100
AcDbEntity
  8
0
  6
Continuous
 62
     7
370
    15
100
AcDbLine
 10
412.9249848625
 20
432.2527245919
 30
0.0
 11
412.9249848625
 21
436.6665155928
 31
0.0
  0
LINE
  5
1F3
330
1F
100
AcDbEntity
  8
0
  6
Continuous
 62
     7
370
    15
100
AcDbLine
 10
412.8249831697
 20
434.7527222077
 30
0.0
 11
412.8249831697
 21
440.7527269165
 31
0.0
  0
ARC
  5
1F4
330
1F
100
AcDbEntity
  8
0
  6
Continuous
 62
     7
370
    15
100
AcDbCircle
 10
411.3249813339
 20
445.4527246992
 30
0.0
 40
2.800000000000011
100
AcDbArc
 50
0.0
 51
45.4024529621
  0
LINE
  5
1F5
330
1F
100
AcDbEntity
  8
0
  6
Continuous
 62
     7
370
    15
100
AcDbLine
 10
410.2173246643
 20
448.0243222158
 30
0.0
 11
409.6204437515
 21
447.6741151254
 31
0.0
  0
LINE
  5
1F6
330
1F
100
AcDbEntity
  8
0
  6
Continuous
 62
     7
370
    15
100
AcDbLine
 10
406.8075217506
 20
444.0031097571
 30
0.0
 11
410.3509582779
 21
446.7220873873
 31
0.0
  0
LINE
  5
1F7
330
1F
100
AcDbEntity
  8
0
  6
Continuous
 62
     7
370
    15
100
AcDbLine
 10
406.0770072243
 20
444.9551374952
 30
0.0
 11
406.8075217506
 21
444.0031097571
 31
0.0
  0
LINE
  5
1F8
330
1F
100
AcDbEntity
  8
0
  6
Continuous
 62
     7
370
    15
100
AcDbLine
 10
409.6204437515
 20
447.6741151254
 30
0.0
 11
406.0770072243
 21
444.9551374952
 31
0.0
  0
LINE
  5
1F9
330
1F
100
AcDbEntity
  8
0
  6
Continuous
 62
     7
370
    15
100
AcDbLine
 10
414.1249753735
 20
443.7527255456
 30
0.0
 11
414.1249753735
 21
444.7527275722
 31
0.0
  0
LINE
  5
1FA
330
1F
100
AcDbEntity
  8
0
  6
Continuous
 62
     7
370
    15
100
AcDbLine
 10
412.9249848625
 20
444.3936617415
 30
0.0
 11
412.9249848625
 21
443.7527255456
 31
0.0
  0
LINE
  5
1FB
330
1F
100
AcDbEntity
  8
0
  6
Continuous
 62
     7
370
    15
100
AcDbLine
 10
405.8555014631
 20
443.2725952308
 30
0.0
 11
405.1249869368
 21
444.2246229689
 31
0.0
  0
LWPOLYLINE
  5
1FC
330
1F
100
AcDbEntity
  8
0
  6
Continuous
 62
     7
370
    15
100
AcDbPolyline
 90
        9
 70
   128
 43
0.0
 10
405.1249869368
 20
444.2246229689
 10
405.1432706615
 20
444.2386598627
 10
405.1974512836
 20
444.2802266519
 10
405.2854277393
 20
444.3477363627
 10
405.403817465
 20
444.4385812919
 10
405.5480905077
 20
444.5492820184
 10
405.7126887342
 20
444.6755768101
 10
405.8912791512
 20
444.812615339
 10
406.0770072243
 20
444.9551374952
  0
LWPOLYLINE
  5
1FD
330
1F
100
AcDbEntity
  8
0
  6
Continuous
 62
     7
370
    15
100
AcDbPolyline
 90
        9
 70
   128
 43
0.0
 10
406.8075217506
 20
444.0031097571
 10
406.6217936775
 20
443.8605950515
 10
406.4431883594
 20
443.7235565226
 10
406.2786050341
 20
443.5972617309
 10
406.1343319914
 20
443.4865610044
 10
406.0159422657
 20
443.3957086246
 10
405.92796581
 20
443.3282063644
 10
405.8737851879
 20
443.2866321246
 10
405.8555014631
 20
443.2725952308
  0
ARC
  5
1FE
330
1F
100
AcDbEntity
  8
0
  6
Continuous
 62
     7
370
    15
100
AcDbCircle
 10
409.2249813339
 20
460.7727246992
 30
0.0
 40
2.200000000000064
100
AcDbArc
 50
103.5934783352
 51
268.1042765976
  0
LINE
  5
1FF
330
1F
100
AcDbEntity
  8
0
  6
Continuous
 62
     7
370
    15
100
AcDbLine
 10
405.6781478426
 20
462.1504963677
 30
0.0
 11
406.0117997429
 21
464.0427277724
 31
0.0
  0
LWPOLYLINE
  5
200
330
1F
100
AcDbEntity
  8
0
  6
Continuous
 62
     7
370
    15
100
AcDbPolyline
 90
        9
 70
   128
 43
0.0
 10
406.0117997429
 20
464.0427277724
 10
405.8675714037
 20
464.068156604
 10
405.7305254242
 20
464.0923188369
 10
405.6054152748
 20
464.114380006
 10
405.4965771934
 20
464.1335727017
 10
405.4077513716
 20
464.1492338221
 10
405.3420074484
 20
464.1608269255
 10
405.3016402027
 20
464.1679496805
 10
405.2880205414
 20
464.1703487675
  0
LINE
  5
201
330
1F
100
AcDbEntity
  8
0
  6
Continuous
 62
     7
370
    15
100
AcDbLine
 10
405.2880205414
 20
464.1703487675
 30
0.0
 11
409.6630610725
 21
488.9824585359
 31
0.0
  0
LWPOLYLINE
  5
202
330
1F
100
AcDbEntity
  8
0
  6
Continuous
 62
     7
370
    15
100
AcDbPolyline
 90
        9
 70
   128
 43
0.0
 10
409.6630610725
 20
488.9824585359
 10
409.6782006523
 20
488.9797875027
 10
409.7230382463
 20
488.9718824367
 10
409.7958453199
 20
488.9590450863
 10
409.8938204548
 20
488.9417709152
 10
410.0132085583
 20
488.9207192998
 10
410.1494200727
 20
488.8967023532
 10
410.2972097895
 20
488.8706402223
 10
410.4509152672
 20
488.8435387354
  0
LINE
  5
203
330
1F
100
AcDbEntity
  8
0
  6
Continuous
 62
     7
370
    15
100
AcDbLine
 10
410.4509152672
 20
488.8435387354
 30
0.0
 11
405.6255914471
 21
461.4777387421
 31
0.0
  0
LINE
  5
204
330
1F
100
AcDbEntity
  8
0
  6
Continuous
 62
     7
370
    15
100
AcDbLine
 10
405.6255914471
 20
461.4777387421
 30
0.0
 11
405.6781478426
 21
462.1504963677
 31
0.0
  0
LWPOLYLINE
  5
205
330
1F
100
AcDbEntity
  8
0
  6
Continuous
 62
     7
370
    15
100
AcDbPolyline
 90
        5
 70
   128
 43
0.0
 10
408.5103668472
 20
495.8707847933
 10
408.2568980953
 20
496.5671905617
 10
408.0733306906
 20
497.0715017359
 10
407.9621978304
 20
497.3768600564
 10
407.9249747297
 20
497.4791080992
  0
LWPOLYLINE
  5
206
330
1F
100
AcDbEntity
  8
0
  6
Continuous
 62
     7
370
    15
100
AcDbPolyline
 90
        5
 70
   128
 43
0.0
 10
409.2699833414
 20
496.1227708797
 10
409.0131469271
 20
496.8284414451
 10
408.8271208307
 20
497.3395587246
 10
408.7144531509
 20
497.6490744691
 10
408.676738312
 20
497.752723221
  0
LINE
  5
207
330
1F
100
AcDbEntity
  8
0
  6
Continuous
 62
     7
370
    15
100
AcDbLine
 10
409.492085149
 20
495.768324409
 30
0.0
 11
409.2699833414
 21
496.1227708797
 31
0.0
  0
LINE
  5
208
330
1F
100
AcDbEntity
  8
0
  6
Continuous
 62
     7
370
    15
100
AcDbLine
 10
409.4098903439
 20
495.7384066026
 30
0.0
 11
409.492085149
 21
495.768324409
 31
0.0
  0
SPLINE
  5
209
330
1F
100
AcDbEntity
  8
0
  6
Continuous
 62
     7
370
    15
100
AcDbSpline
210
0.0
220
0.0
230
1.0
 70
     8
 71
     3
 72
    12
 73
     8
 74
     0
 42
0.00000001
 43
0.00000001
 40
0.0
 40
0.0
 40
0.0
 40
0.0
 40
0.2510216974581
 40
0.5023984045762419
 40
0.7402768941595013
 40
0.9473179129745757
 40
1.0
 40
1.0
 40
1.0
 40
1.0
 10
408.5103668472267
 20
495.8707847933392
 30
0.0
 10
408.5380757804802
 20
495.8264680974468
 30
0.0
 10
408.5935328345915
 20
495.737772030382
 30
0.0
 10
408.8005300313745
 20
495.6627639026273
 30
0.0
 10
409.0619212640349
 20
495.6512841422773
 30
0.0
 10
409.2785093975177
 20
495.6929160779467
 30
0.0
 10
409.3877350704901
 20
495.7307353607715
 30
0.0
 10
409.4098903438544
 20
495.7384066025833
 30
0.0
  0
LINE
  5
20A
330
1F
100
AcDbEntity
  8
0
  6
Continuous
 62
     7
370
    15
100
AcDbLine
 10
409.4098903439
 20
495.7384066026
 30
0.0
 11
409.9862225553
 21
494.1549235324
 31
0.0
  0
LWPOLYLINE
  5
20B
330
1F
100
AcDbEntity
  8
0
  6
Continuous
 62
     7
370
    15
100
AcDbPolyline
 90
        9
 70
   128
 43
0.0
 10
409.2344738743
 20
493.8813046853
 10
409.2489130995
 20
493.8865647952
 10
409.2916943333
 20
493.9021327834
 10
409.3611635468
 20
493.9274200539
 10
409.4546534321
 20
493.9614468555
 10
409.5685728094
 20
494.0029093365
 10
409.6985407373
 20
494.0502130727
 10
409.8395653269
 20
494.1015438478
 10
409.9862225553
 20
494.1549235324
  0
LINE
  5
20C
330
1F
100
AcDbEntity
  8
0
  6
Continuous
 62
     7
370
    15
100
AcDbLine
 10
409.2344738743
 20
493.8813046853
 30
0.0
 11
408.5103668472
 21
495.8707847933
 31
0.0
  0
ARC
  5
20D
330
1F
100
AcDbEntity
  8
0
  6
Continuous
 62
     7
370
    15
100
AcDbCircle
 10
409.8149868401
 20
466.9417156177
 30
0.0
 40
1.600000000000011
100
AcDbArc
 50
347.034367059
 51
204.5705045339
  0
ARC
  5
20E
330
1F
100
AcDbEntity
  8
0
  6
Continuous
 62
     7
370
    15
100
AcDbCircle
 10
410.3276958053
 20
494.9647895536
 30
0.0
 40
0.5000000000000568
100
AcDbArc
 50
36.8410865503
 51
90.0
  0
ARC
  5
20F
330
1F
100
AcDbEntity
  8
0
  6
Continuous
 62
     7
370
    15
100
AcDbCircle
 10
403.1249813339
 20
489.5684107452
 30
0.0
 40
9.5
100
AcDbArc
 50
0.0
 51
36.8410865502
  0
LINE
  5
210
330
1F
100
AcDbEntity
  8
0
  6
Continuous
 62
     7
370
    15
100
AcDbLine
 10
412.6249797842
 20
489.5684094469
 30
0.0
 11
412.6249797842
 21
461.542722706
 31
0.0
  0
ARC
  5
211
330
1F
100
AcDbEntity
  8
0
  6
Continuous
 62
     7
370
    15
100
AcDbCircle
 10
400.3073942934
 20
490.6321151675
 30
0.0
 40
10.30000000000009
100
AcDbArc
 50
350.0
 51
20.0
  0
ARC
  5
212
330
1F
100
AcDbEntity
  8
0
  6
Continuous
 62
     7
370
    15
100
AcDbCircle
 10
410.2096832597
 20
496.4647895536
 30
0.0
 40
0.9999999999999487
100
AcDbArc
 50
224.1440002858
 51
270.0
  0
LINE
  5
213
330
1F
100
AcDbEntity
  8
0
  6
Continuous
 62
     7
370
    15
100
AcDbLine
 10
410.2096803686
 20
495.4647877555
 30
0.0
 11
410.3276975653
 21
495.4647877555
 31
0.0
  0
LWPOLYLINE
  5
214
330
1F
100
AcDbEntity
  8
0
  6
Continuous
 62
     7
370
    15
100
AcDbPolyline
 90
        3
 70
   128
 43
0.0
 10
412.6249797842
 20
461.542722706
 10
412.4163635275
 20
460.3524403016
 10
412.0601959726
 20
459.6362830441
  0
ARC
  5
215
330
1F
100
AcDbEntity
  8
0
  6
Continuous
 62
     7
370
    15
100
AcDbCircle
 10
409.1249813339
 20
461.5427246992
 30
0.0
 40
3.500000000000063
100
AcDbArc
 50
181.0639402281
 51
271.3221928089
  0
ARC
  5
216
330
1F
100
AcDbEntity
  8
0
  6
Continuous
 62
     7
370
    15
100
AcDbCircle
 10
400.3073942934
 20
490.6321151675
 30
0.0
 40
9.500000000000318
100
AcDbArc
 50
350.0
 51
20.0
  0
ARC
  5
217
330
1F
100
AcDbEntity
  8
0
  6
Continuous
 62
     7
370
    15
100
AcDbCircle
 10
409.7185991273
 20
462.240220226
 30
0.0
 40
4.698428302687955
100
AcDbArc
 50
170.0
 51
264.3261771658
  0
LINE
  5
218
330
1F
100
AcDbEntity
  8
0
  6
Continuous
 62
     7
370
    15
100
AcDbLine
 10
405.2880205414
 20
464.1703487675
 30
0.0
 11
405.091548731
 21
463.0560920875
 31
0.0
  0
SPLINE
  5
219
330
1F
100
AcDbEntity
  8
0
  6
Continuous
 62
     7
370
    15
100
AcDbSpline
210
0.0
220
0.0
230
1.0
 70
     8
 71
     3
 72
    12
 73
     8
 74
     0
 42
0.00000001
 43
0.00000001
 40
0.0
 40
0.0
 40
0.0
 40
0.0
 40
0.2340518500848962
 40
0.4681084143424835
 40
0.7021652771456403
 40
0.9362190989366869
 40
0.9999999999999999
 40
0.9999999999999999
 40
0.9999999999999999
 40
0.9999999999999999
 10
410.4219623109794
 20
462.4298409859756
 30
0.0
 10
410.225569459181
 20
462.4104583753571
 30
0.0
 10
409.8327797999229
 20
462.3716927637236
 30
0.0
 10
409.2952808039648
 20
462.3664506183883
 30
0.0
 10
408.9217790939438
 20
462.4049332948152
 30
0.0
 10
408.7425859932743
 20
462.459583441261
 30
0.0
 10
408.7713051023035
 20
462.5035391559757
 30
0.0
 10
408.7774552604652
 20
462.5129522125343
 30
0.0
  0
SPLINE
  5
21A
330
1F
100
AcDbEntity
  8
0
  6
Continuous
 62
     7
370
    15
100
AcDbSpline
210
0.0
220
0.0
230
1.0
 70
     8
 71
     3
 72
    11
 73
     7
 74
     0
 42
0.00000001
 43
0.00000001
 40
0.0
 40
0.0
 40
0.0
 40
0.0
 40
0.198686486802408
 40
0.4657890565669508
 40
0.7328959069263856
 40
1.0
 40
1.0
 40
1.0
 40
1.0
 10
411.7178715965248
 20
462.808725361071
 30
0.0
 10
411.7166878437527
 20
462.7842356119104
 30
0.0
 10
411.7139127225265
 20
462.7268232667598
 30
0.0
 10
411.4443955716393
 20
462.6197280944144
 30
0.0
 10
410.9973271816916
 20
462.5089251946275
 30
0.0
 10
410.6137499412827
 20
462.4562022981513
 30
0.0
 10
410.4219623109794
 20
462.4298409859757
 30
0.0
  0
SPLINE
  5
21B
330
1F
100
AcDbEntity
  8
0
  6
Continuous
 62
     7
370
    15
100
AcDbSpline
210
0.0
220
0.0
230
1.0
 70
     8
 71
     3
 72
    12
 73
     8
 74
     0
 42
0.00000001
 43
0.00000001
 40
0.0
 40
0.0
 40
0.0
 40
0.0
 40
0.2339702271299507
 40
0.4679328904885977
 40
0.7018980303025738
 40
0.9358629961404901
 40
1.0
 40
1.0
 40
1.0
 40
1.0
 10
409.8149933120704
 20
468.4417144696335
 30
0.0
 10
409.6189079382082
 20
468.4192092716139
 30
0.0
 10
409.2267435295164
 20
468.3741996031208
 30
0.0
 10
408.7238072274241
 20
468.0267074764693
 30
0.0
 10
408.4039948495505
 20
467.533220474284
 30
0.0
 10
408.2760676587691
 20
467.0796358240541
 30
0.0
 10
408.333856764459
 20
466.8366428533956
 30
0.0
 10
408.3462901613212
 20
466.7843626181702
 30
0.0
  0
SPLINE
  5
21C
330
1F
100
AcDbEntity
  8
0
  6
Continuous
 62
     7
370
    15
100
AcDbSpline
210
0.0
220
0.0
230
1.0
 70
     8
 71
     3
 72
    11
 73
     7
 74
     0
 42
0.00000001
 43
0.00000001
 40
0.0
 40
0.0
 40
0.0
 40
0.0
 40
0.1976896372521521
 40
0.4651276561127174
 40
0.7325628442169249
 40
1.0
 40
1.0
 40
1.0
 40
1.0
 10
411.2852014801002
 20
467.0914233963112
 30
0.0
 10
411.2669212861513
 20
467.2361743840393
 30
0.0
 10
411.2239113242588
 20
467.5767470543008
 30
0.0
 10
410.8984520932773
 20
468.0265200038768
 30
0.0
 10
410.4051605240966
 20
468.3742434488748
 30
0.0
 10
410.0117161985445
 20
468.4192240742226
 30
0.0
 10
409.8149933120704
 20
468.4417144696335
 30
0.0
  0
SPLINE
  5
21D
330
1F
100
AcDbEntity
  8
0
  6
Continuous
 62
     7
370
    15
100
AcDbSpline
210
0.0
220
0.0
230
1.0
 70
     8
 71
     3
 72
    12
 73
     8
 74
     0
 42
0.00000001
 43
0.00000001
 40
0.0
 40
0.0
 40
0.0
 40
0.0
 40
0.2350125244436734
 40
0.470030069204972
 40
0.70504759456043
 40
0.9400627036485777
 40
1.0
 40
1.0
 40
1.0
 40
1.0
 10
411.9910396835303
 20
446.8888686339477
 30
0.0
 10
411.7946541365394
 20
446.8694907615224
 30
0.0
 10
411.4018788473861
 20
446.8307346027231
 30
0.0
 10
410.8642701139377
 20
446.8254661175554
 30
0.0
 10
410.4911879268743
 20
446.8639953266115
 30
0.0
 10
410.3121914978886
 20
446.9181055040847
 30
0.0
 10
410.3400639978829
 20
446.9614072681915
 30
0.0
 10
410.3457279703117
 20
446.9702066223243
 30
0.0
  0
SPLINE
  5
21E
330
1F
100
AcDbEntity
  8
0
  6
Continuous
 62
     7
370
    15
100
AcDbSpline
210
0.0
220
0.0
230
1.0
 70
     8
 71
     3
 72
    11
 73
     7
 74
     0
 42
0.00000001
 43
0.00000001
 40
0.0
 40
0.0
 40
0.0
 40
0.0
 40
0.1989239528429226
 40
0.4659512217777148
 40
0.7329742825759883
 40
0.9999999999999999
 40
0.9999999999999999
 40
0.9999999999999999
 40
0.9999999999999999
 10
413.2869936725593
 20
447.267864767752
 30
0.0
 10
413.2858198012722
 20
447.2433391484338
 30
0.0
 10
413.2830701738262
 20
447.1858913543251
 30
0.0
 10
413.0134647724314
 20
447.0787587781324
 30
0.0
 10
412.5664017361215
 20
446.9679512544215
 30
0.0
 10
412.1828276704238
 20
446.9152295948603
 30
0.0
 10
411.9910396835304
 20
446.8888686339478
 30
0.0
  0
ARC
  5
21F
330
1F
100
AcDbEntity
  8
0
  6
Continuous
 62
     7
370
    15
100
AcDbCircle
 10
413.1922675273
 20
457.1905005655
 30
0.0
 40
0.4000075631347622
100
AcDbArc
 50
0.1476654792
 51
179.5012206112
  0
ELLIPSE
  5
220
330
1F
100
AcDbEntity
  8
0
  6
Continuous
 62
     7
370
    15
100
AcDbEllipse
 10
413.1922807342
 20
456.9256163055
 30
0.0
 11
0.3991830274373455
 21
-0.02624604221153959
 31
0.0
210
0.0
220
0.0
230
0.9999999999999999
 40
0.9763157485
 41
0.0
 42
6.283185307179586
  0
SPLINE
  5
221
330
1F
100
AcDbEntity
  8
0
  6
Continuous
 62
     7
370
    15
100
AcDbSpline
210
0.0
220
0.0
230
1.0
 70
     8
 71
     3
 72
    13
 73
     9
 74
     0
 42
0.00000001
 43
0.00000001
 40
0.0
 40
0.0
 40
0.0
 40
0.0
 40
0.0081702305184465
 40
0.2391540597909445
 40
0.4710939174990594
 40
0.693120466081165
 40
0.9042225443386908
 40
1.0
 40
1.0
 40
1.0
 40
1.0
 10
413.1922818920112
 20
457.6544509570221
 30
0.0
 10
413.1906229908782
 20
457.6540561616494
 30
0.0
 10
413.1420646374922
 20
457.6424999496221
 30
0.0
 10
413.0459326454186
 20
457.6193037201745
 30
0.0
 10
412.9230965716561
 20
457.5756618012998
 30
0.0
 10
412.8374473951484
 20
457.5382073140416
 30
0.0
 10
412.793428598141
 20
457.5170608326823
 30
0.0
 10
412.7966606226938
 20
457.5120819931717
 30
0.0
 10
412.7976693412758
 20
457.5105280916313
 30
0.0
  0
SPLINE
  5
222
330
1F
100
AcDbEntity
  8
0
  6
Continuous
 62
     7
370
    15
100
AcDbSpline
210
0.0
220
0.0
230
1.0
 70
     8
 71
     3
 72
    13
 73
     9
 74
     0
 42
0.00000001
 43
0.00000001
 40
0.0
 40
0.0
 40
0.0
 40
0.0
 40
0.1252289285960488
 40
0.2499779134280402
 40
0.4999780450168358
 40
0.749997895397136
 40
0.8747543546657531
 40
0.9999999999999999
 40
0.9999999999999999
 40
0.9999999999999999
 40
0.9999999999999999
 10
413.5922886630989
 20
457.6487587134461
 30
0.0
 10
413.5905743409119
 20
457.6487854675734
 30
0.0
 10
413.5871522667311
 20
457.648838873292
 30
0.0
 10
413.5527723927726
 20
457.649315464618
 30
0.0
 10
413.4775085779854
 20
457.6503928621489
 30
0.0
 10
413.3688462370578
 20
457.6519422220663
 30
0.0
 10
413.2701329980486
 20
457.6533390914104
 30
0.0
 10
413.2182660904969
 20
457.6540798519959
 30
0.0
 10
413.1922818920112
 20
457.6544509570221
 30
0.0
  0
SPLINE
  5
223
330
1F
100
AcDbEntity
  8
0
  6
Continuous
 62
     7
370
    15
100
AcDbSpline
210
0.0
220
0.0
230
1.0
 70
     8
 71
     3
 72
    10
 73
     6
 74
     0
 42
0.00000001
 43
0.00000001
 40
0.0
 40
0.0
 40
0.0
 40
0.0
 40
0.0190107309040389
 40
0.5253203859619627
 40
1.0
 40
1.0
 40
1.0
 40
1.0
 10
413.1922818920112
 20
457.6544509570221
 30
0.0
 10
413.193806241992
 20
457.6551886538226
 30
0.0
 10
413.2359283531465
 20
457.6755733076207
 30
0.0
 10
413.3184471871708
 20
457.7139880429114
 30
0.0
 10
413.388602761844
 20
457.7400926547361
 30
0.0
 10
413.4225495359398
 20
457.7527241150955
 30
0.0
  0
LINE
  5
224
330
1F
100
AcDbEntity
  8
0
  6
Continuous
 62
     7
370
    15
100
AcDbLine
 10
408.315757682
 20
466.8936849873
 30
0.0
 11
408.3282150528
 21
466.7429150383
 31
0.0
  0
LINE
  5
225
330
1F
100
AcDbEntity
  8
0
  6
Continuous
 62
     7
370
    15
100
AcDbLine
 10
411.3079853556
 20
467.0864240567
 30
0.0
 11
411.2724013826
 21
467.2965900342
 31
0.0
  0
LINE
  5
226
330
1F
100
AcDbEntity
  8
0
  6
Continuous
 62
     7
370
    15
100
AcDbLine
 10
429.1249759695
 20
525.7527250166
 30
0.0
 11
429.1249759695
 21
540.7527246813
 31
0.0
  0
LINE
  5
227
330
1F
100
AcDbEntity
  8
0
  6
Continuous
 62
     7
370
    15
100
AcDbLine
 10
429.1249759695
 20
525.7527250166
 30
0.0
 11
414.1249753735
 21
525.7527250166
 31
0.0
  0
ARC
  5
228
330
1F
100
AcDbEntity
  8
0
  6
Continuous
 62
     7
370
    15
100
AcDbCircle
 10
429.1249813339
 20
525.7527246992
 30
0.0
 40
15.0
100
AcDbArc
 50
90.0
 51
180.0
  0
LINE
  5
229
330
1F
100
AcDbEntity
  8
0
  6
Continuous
 62
     7
370
    15
100
AcDbLine
 10
699.1249866983
 20
525.7527250166
 30
0.0
 11
429.1249759695
 21
525.7527250166
 31
0.0
  0
LINE
  5
22A
330
1F
100
AcDbEntity
  8
0
  6
Continuous
 62
     7
370
    15
100
AcDbLine
 10
699.1249866983
 20
540.7527246813
 30
0.0
 11
429.1249759695
 21
540.7527246813
 31
0.0
  0
LINE
  5
22B
330
1F
100
AcDbEntity
  8
0
  6
Continuous
 62
     7
370
    15
100
AcDbLine
 10
699.1249866983
 20
525.7527250166
 30
0.0
 11
699.1249866983
 21
540.7527246813
 31
0.0
  0
LINE
  5
22C
330
1F
100
AcDbEntity
  8
0
  6
Continuous
 62
     7
370
    15
100
AcDbLine
 10
699.1249866983
 20
525.7527250166
 30
0.0
 11
714.1249872944
 21
525.7527250166
 31
0.0
  0
ARC
  5
22D
330
1F
100
AcDbEntity
  8
0
  6
Continuous
 62
     7
370
    15
100
AcDbCircle
 10
699.1249813339
 20
525.7527246992
 30
0.0
 40
14.99999999999989
100
AcDbArc
 50
0.0
 51
90.0
  0
LINE
  5
22E
330
1F
100
AcDbEntity
  8
0
  6
Continuous
 62
     7
370
    15
100
AcDbLine
 10
699.1249866983
 20
444.7527275722
 30
0.0
 11
699.1249866983
 21
525.7527250166
 31
0.0
  0
LINE
  5
22F
330
1F
100
AcDbEntity
  8
0
  6
Continuous
 62
     7
370
    15
100
AcDbLine
 10
714.1249872944
 20
444.7527275722
 30
0.0
 11
714.1249872944
 21
525.7527250166
 31
0.0
  0
LINE
  5
230
330
1F
100
AcDbEntity
  8
0
  6
Continuous
 62
     7
370
    15
100
AcDbLine
 10
714.1249872944
 20
444.7527275722
 30
0.0
 11
699.1249866983
 21
444.7527275722
 31
0.0
  0
LINE
  5
231
330
1F
100
AcDbEntity
  8
0
  6
Continuous
 62
     7
370
    15
100
AcDbLine
 10
414.1249753735
 20
444.7527275722
 30
0.0
 11
414.1249753735
 21
525.7527250166
 31
0.0
  0
LINE
  5
232
330
1F
100
AcDbEntity
  8
0
  6
Continuous
 62
     7
370
    15
100
AcDbLine
 10
429.1249759695
 20
444.7527275722
 30
0.0
 11
429.1249759695
 21
525.7527250166
 31
0.0
  0
LINE
  5
233
330
1F
100
AcDbEntity
  8
0
  6
Continuous
 62
     7
370
    15
100
AcDbLine
 10
429.1249759695
 20
444.7527275722
 30
0.0
 11
414.1249753735
 21
444.7527275722
 31
0.0
  0
LINE
  5
234
330
1F
100
AcDbEntity
  8
0
  6
Continuous
 62
     7
370
    15
100
AcDbLine
 10
429.1249759695
 20
444.7527275722
 30
0.0
 11
699.1249866983
 21
444.7527275722
 31
0.0
  0
LINE
  5
235
330
1F
100
AcDbEntity
  8
0
  6
Continuous
 62
     7
370
    15
100
AcDbLine
 10
434.1249861023
 20
464.7527233998
 30
0.0
 11
434.1249861023
 21
520.7527251284
 31
0.0
  0
LINE
  5
236
330
1F
100
AcDbEntity
  8
0
  6
Continuous
 62
     7
370
    15
100
AcDbLine
 10
434.1249861023
 20
464.7527233998
 30
0.0
 11
694.1249765655
 21
464.7527233998
 31
0.0
  0
LINE
  5
237
330
1F
100
AcDbEntity
  8
0
  6
Continuous
 62
     7
370
    15
100
AcDbLine
 10
694.1249765655
 20
520.7527251284
 30
0.0
 11
694.1249765655
 21
464.7527233998
 31
0.0
  0
LINE
  5
238
330
1F
100
AcDbEntity
  8
0
  6
Continuous
 62
     7
370
    15
100
AcDbLine
 10
694.1249765655
 20
520.7527251284
 30
0.0
 11
434.1249861023
 21
520.7527251284
 31
0.0
  0
LINE
  5
239
330
1F
100
AcDbEntity
  8
0
  6
Continuous
 62
     7
370
    15
100
AcDbLine
 10
709.1249771616
 20
444.7527275722
 30
0.0
 11
709.1249771616
 21
440.7527269165
 31
0.0
  0
LINE
  5
23A
330
1F
100
AcDbEntity
  8
0
  6
Continuous
 62
     7
370
    15
100
AcDbLine
 10
694.1249765655
 20
440.7527269165
 30
0.0
 11
694.1249765655
 21
444.7527275722
 31
0.0
  0
LINE
  5
23B
330
1F
100
AcDbEntity
  8
0
  6
Continuous
 62
     7
370
    15
100
AcDbLine
 10
434.1249861023
 20
440.7527269165
 30
0.0
 11
434.1249861023
 21
444.7527275722
 31
0.0
  0
LINE
  5
23C
330
1F
100
AcDbEntity
  8
0
  6
Continuous
 62
     7
370
    15
100
AcDbLine
 10
419.1249855062
 20
440.7527269165
 30
0.0
 11
419.1249855062
 21
444.7527275722
 31
0.0
  0
LINE
  5
23D
330
1F
100
AcDbEntity
  8
0
  6
Continuous
 62
     7
370
    15
100
AcDbLine
 10
714.1249872944
 20
444.7527275722
 30
0.0
 11
714.7923059961
 21
444.7527275722
 31
0.0
  0
ARC
  5
23E
330
1F
100
AcDbEntity
  8
0
  6
Continuous
 62
     7
370
    15
100
AcDbCircle
 10
714.792299082
 20
445.2527246992
 30
0.0
 40
0.5000000000001322
100
AcDbArc
 50
270.0
 51
332.720387264
  0
ARC
  5
23F
330
1F
100
AcDbEntity
  8
0
  6
Continuous
 62
     7
370
    15
100
AcDbCircle
 10
714.5628324686
 20
440.2527246992
 30
0.0
 40
0.500000000000081
100
AcDbArc
 50
22.024312837
 51
90.0
  0
ARC
  5
240
330
1F
100
AcDbEntity
  8
0
  6
Continuous
 62
     7
370
    15
100
AcDbCircle
 10
720.1249813339
 20
442.5027246992
 30
0.0
 40
5.500000000000036
100
AcDbArc
 50
202.024312837
 51
152.720387264
  0
LINE
  5
241
330
1F
100
AcDbEntity
  8
0
  6
Continuous
 62
     7
370
    15
100
AcDbLine
 10
714.5628281137
 20
440.7527269165
 30
0.0
 11
714.1249872944
 21
440.7527269165
 31
0.0
  0
LINE
  5
242
330
1F
100
AcDbEntity
  8
0
  6
Continuous
 62
     7
370
    15
100
AcDbLine
 10
413.8249851963
 20
463.9527247588
 30
0.0
 11
414.1249753735
 21
463.9537827413
 31
0.0
  0
LINE
  5
243
330
1F
100
AcDbEntity
  8
0
  6
Continuous
 62
     7
370
    15
100
AcDbLine
 10
414.1249753735
 20
465.9527213614
 30
0.0
 11
413.8249851963
 21
465.9527213614
 31
0.0
  0
LINE
  5
244
330
1F
100
AcDbEntity
  8
0
  6
Continuous
 62
     7
370
    15
100
AcDbLine
 10
413.8249851963
 20
463.9527247588
 30
0.0
 11
413.8249851963
 21
465.9527213614
 31
0.0
  0
LINE
  5
245
330
1F
100
AcDbEntity
  8
0
  6
Continuous
 62
     7
370
    15
100
AcDbLine
 10
414.1249753735
 20
457.7527241151
 30
0.0
 11
413.8249851963
 21
457.7527241151
 31
0.0
  0
LINE
  5
246
330
1F
100
AcDbEntity
  8
0
  6
Continuous
 62
     7
370
    15
100
AcDbLine
 10
413.8249851963
 20
457.7527241151
 30
0.0
 11
413.8249851963
 21
463.9527247588
 31
0.0
  0
ARC
  5
247
330
1F
100
AcDbEntity
  8
0
  6
Continuous
 62
     7
370
    15
100
AcDbCircle
 10
408.9249813339
 20
460.8527246992
 30
0.0
 40
3.100000000000041
100
AcDbArc
 50
192.3149190288
 51
270.0
  0
LINE
  5
248
330
1F
100
AcDbEntity
  8
0
  6
Continuous
 62
     7
370
    15
100
AcDbLine
 10
408.9249767563
 20
457.7527241151
 30
0.0
 11
409.2351146242
 21
457.7527241151
 31
0.0
  0
LINE
  5
249
330
1F
100
AcDbEntity
  8
0
  6
Continuous
 62
     7
370
    15
100
AcDbLine
 10
412.2503645918
 20
457.7527241151
 30
0.0
 11
413.8249851963
 21
457.7527241151
 31
0.0
  0
LINE
  5
24A
330
1F
100
AcDbEntity
  8
0
  6
Continuous
 62
     7
370
    15
100
AcDbLine
 10
413.8249851963
 20
463.9527247588
 30
0.0
 11
412.6249797842
 21
463.9527247588
 31
0.0
  0
LINE
  5
24B
330
1F
100
AcDbEntity
  8
0
  6
Continuous
 62
     7
370
    15
100
AcDbLine
 10
413.8249851963
 20
465.9527213614
 30
0.0
 11
413.8249851963
 21
490.0027261417
 31
0.0
  0
LINE
  5
24C
330
1F
100
AcDbEntity
  8
0
  6
Continuous
 62
     7
370
    15
100
AcDbLine
 10
413.8249851963
 20
496.7527249198
 30
0.0
 11
413.8249851963
 21
490.0027261417
 31
0.0
  0
LINE
  5
24D
330
1F
100
AcDbEntity
  8
0
  6
Continuous
 62
     7
370
    15
100
AcDbLine
 10
413.7249835035
 20
489.752725635
 30
0.0
 11
413.7249835035
 21
495.7527228932
 31
0.0
  0
LINE
  5
24E
330
1F
100
AcDbEntity
  8
0
  6
Continuous
 62
     7
370
    15
100
AcDbLine
 10
413.7249835035
 20
466.752727453
 30
0.0
 11
413.7249835035
 21
472.7527247111
 31
0.0
  0
LINE
  5
24F
330
1F
100
AcDbEntity
  8
0
  6
Continuous
 62
     7
370
    15
100
AcDbLine
 10
412.6249797842
 20
482.1095400791
 30
0.0
 11
413.8249851963
 21
481.7879990975
 31
0.0
  0
LINE
  5
250
330
1F
100
AcDbEntity
  8
0
  6
Continuous
 62
     7
370
    15
100
AcDbLine
 10
413.8249851963
 20
480.7527260224
 30
0.0
 11
412.6249797842
 21
481.0742632787
 31
0.0
  0
LINE
  5
251
330
1F
100
AcDbEntity
  8
0
  6
Continuous
 62
     8
370
    15
100
AcDbLine
 10
414.1249753735
 20
490.0027261417
 30
0.0
 11
413.8249851963
 21
490.0027261417
 31
0.0
  0
ENDSEC
  0
SECTION
  2
OBJECTS
  0
DICTIONARY
  5
C
330
0
100
AcDbDictionary
281
     1
  3
ACAD_GROUP
350
D
  3
ACAD_LAYOUT
350
1A
  3
ACAD_MLINESTYLE
350
17
  3
ACAD_PLOTSETTINGS
350
19
  3
ACAD_PLOTSTYLENAME
350
E
  0
DICTIONARY
  5
D
102
{ACAD_REACTORS
330
C
102
}
330
C
100
AcDbDictionary
281
     1
  0
DICTIONARY
  5
1A
102
{ACAD_REACTORS
330
C
102
}
330
C
100
AcDbDictionary
281
     1
  3
Layout1
350
1E
  3
Layout2
350
26
  3
Model
350
22
  0
DICTIONARY
  5
17
102
{ACAD_REACTORS
330
C
102
}
330
C
100
AcDbDictionary
281
     1
  3
Standard
350
18
  0
DICTIONARY
  5
19
102
{ACAD_REACTORS
330
C
102
}
330
C
100
AcDbDictionary
281
     1
  0
ACDBDICTIONARYWDFLT
  5
E
102
{ACAD_REACTORS
330
C
102
}
330
C
100
AcDbDictionary
281
     1
  3
Normal
350
F
100
AcDbDictionaryWithDefault
340
F
  0
LAYOUT
  5
1E
102
{ACAD_REACTORS
330
1A
102
}
330
1A
100
AcDbPlotSettings
  1

  2
none_device
  4

  6

 40
0.0
 41
0.0
 42
0.0
 43
0.0
 44
0.0
 45
0.0
 46
0.0
 47
0.0
 48
0.0
 49
0.0
140
0.0
141
0.0
142
1.0
143
1.0
 70
   688
 72
     0
 73
     0
 74
     5
  7

 75
    16
147
1.0
148
0.0
149
0.0
100
AcDbLayout
  1
Layout1
 70
     1
 71
     1
 10
0.0
 20
0.0
 11
420.0
 21
297.0
 12
0.0
 22
0.0
 32
0.0
 14
1.0000000000E+20
 24
1.0000000000E+20
 34
1.0000000000E+20
 15
-1.0000000000E+20
 25
-1.0000000000E+20
 35
-1.0000000000E+20
146
0.0
 13
0.0
 23
0.0
 33
0.0
 16
1.0
 26
0.0
 36
0.0
 17
0.0
 27
1.0
 37
0.0
 76
     0
330
1B
  0
LAYOUT
  5
26
102
{ACAD_REACTORS
330
1A
102
}
330
1A
100
AcDbPlotSettings
  1

  2
none_device
  4

  6

 40
0.0
 41
0.0
 42
0.0
 43
0.0
 44
0.0
 45
0.0
 46
0.0
 47
0.0
 48
0.0
 49
0.0
140
0.0
141
0.0
142
1.0
143
1.0
 70
   688
 72
     0
 73
     0
 74
     5
  7

 75
    16
147
1.0
148
0.0
149
0.0
100
AcDbLayout
  1
Layout2
 70
     1
 71
     2
 10
0.0
 20
0.0
 11
0.0
 21
0.0
 12
0.0
 22
0.0
 32
0.0
 14
0.0
 24
0.0
 34
0.0
 15
0.0
 25
0.0
 35
0.0
146
0.0
 13
0.0
 23
0.0
 33
0.0
 16
1.0
 26
0.0
 36
0.0
 17
0.0
 27
1.0
 37
0.0
 76
     0
330
23
  0
LAYOUT
  5
22
102
{ACAD_REACTORS
330
1A
102
}
330
1A
100
AcDbPlotSettings
  1

  2
none_device
  4

  6

 40
0.0
 41
0.0
 42
0.0
 43
0.0
 44
0.0
 45
0.0
 46
0.0
 47
0.0
 48
0.0
 49
0.0
140
0.0
141
0.0
142
1.0
143
1.0
 70
  1712
 72
     0
 73
     0
 74
     0
  7

 75
     0
147
1.0
148
0.0
149
0.0
100
AcDbLayout
  1
Model
 70
     1
 71
     0
 10
0.0
 20
0.0
 11
840.0
 21
594.0
 12
0.0
 22
0.0
 32
0.0
 14
0.0
 24
0.0
 34
0.0
 15
840.0
 25
594.0
 35
0.0
146
0.0
 13
0.0
 23
0.0
 33
0.0
 16
1.0
 26
0.0
 36
0.0
 17
0.0
 27
1.0
 37
0.0
 76
     0
330
1F
331
29
  0
MLINESTYLE
  5
18
102
{ACAD_REACTORS
330
17
102
}
330
17
100
AcDbMlineStyle
  2
Standard
 70
     0
  3

 62
   256
 51
90.0
 52
90.0
 71
     2
 49
0.5
 62
   256
  6
BYLAYER
 49
-0.5
 62
   256
  6
BYLAYER
  0
ACDBPLACEHOLDER
  5
F
102
{ACAD_REACTORS
330
E
102
}
330
E
  0
ENDSEC
  0
EOF
